>
 >
Hit The Road Jack Intro

Hit The Road Jack Intro Guitar Tabs

Ulli Boegershausen - Hit The Road Jack Intro chords, tabs, tablatures, lyrics

Guitar lessons | Add/correct | Request | Top 50 tabs Artists:  A B C D E F G H I J K L M N O P Q R S T U V W X Y Z 0-9

Hit The Road Jack Intro Guitar Tabs – Ulli Boegershausen

CD, Sheet music, Poster

Do you like Hit The Road Jack Intro? Share with your friends now
Tabs
Hit the Road Jack - Ulli Bögershausen

Tuning: (standard) EADGBE

Its not done yet but i got most of it down 
Hope this helps

h hammer on
p pull off
/ slide
X dead note


Here is some more of this song :)
If you have any questions or comments


|---0----------------------|-----0--0---5--5---8--8------|
|-----1-3-------1-1-3-1-3-1|-----1--1---5--5--10-10--10--|
|-----------2--------------|-----2--2---5--5---9--9---9--|
|--------------------------|--------------------------7--|
|-------0------------------|-----0-------------8---------|
|-----------3---1-------0--|------------3-------------0--|


|---0----------------------|--------------------------------------------|
|-----1-3-------1-1-3-1-3-1|--------------------------------------------|
|-----------2--------------|-2p0h2--------------2---------1-------------|
|--------------------------|----------------2h3-------1h2---------------|
|-------0------------------|-----0---------------------------0--X-------|
|-----------3---1-------0--|--------0h3--0h1--------0-----------X---0h3-|


|---------------------|-0-------------------------|
|---------------------|---1-3---------1-1-3-1-3-1-|
|-------------2--1----|----------2----------------|
|---------2h3---------|---------------------------|
|-X-------------------|-----0-X----X--------------|
|-X---0p1--------0----|-------X--3-X--1-------0---|


|-0--0---5--5---8--8-|--------------0------------|-------------------|      
|-1--1---5--5--10-10-|-10-5-8-6------------------|-1-1-3-1-3-1-------|    
|-2--2---5--5---9--9-|----------9-7-------2------|-------------2p0h2-|      
|--------------------|---------------------------|-------------------|     
|-0-------------8----|--------------0-0-0--------|-----------------0-|
|--------3-----------|--------------------3-3-3--|-1-------0---------|


|------5-5--8-|-0------------------------|0-0--5-5---8--8---|
|------5-5-10-|---1-3--------1-1-3-1-3-1-|1-1--5-5--10-10---|
|------5-5--9-|---------2----------------|2-2--5-5---9--9---|
|--2---3-3--8-|--------------------------|------------------|
|0------------|-----0-X----X-------------|0----------8------|
|--3-3--------|-------X-3--X-1-------0---|-----3------------|


|--------------0--------|---------------|---------------2/5--2/5-|
|-10-5-8-6-------------1|1-3-1-3-1------|------------------------|
|----------9-7-----2----|----------2p0h2|------------------------|
|-----------------------|---------------|----2-------------------|
|--------------0-0------|--------------0|-0--------------------0-|
|------------------3-3-1|------0--------|----3-3-1-1-0-----------|


|----------------0-|----0-----------------|-----------0--5--8-|
|5-3-1-----1-1-3---|--3---3-1-----1-------|-----1---3----5-10-|
|------2-0---------|----------2-0---2-0---|-0-2---2------5--9-|
|------------------|--------------------2-|-------------------|
|------------------|----0-----------------|---0-------------8-|
|------3---1-----0-|--------3-----1-----0-|--------------3----|

|--0---0---0---0----------|-0-----------------------|
|----3---3---3------------|---1-3-------1-1-3-1-3-1-|
|-----------------2-2-----|---------2---------------|
|-------------------------|-------------------------|
|--0---0------------------|-----0-0-----------------|
|----------3---3----1-1-0-|---------3-3-1-------0---|

|-0-0--5-5--8--8-|--------------0--------------------|
|-1-1--5-5-10-10-|-10-5-8-6-------------1-1-3-1-3-1--|
|-2-2--5-5--9--9-|----------9-7-----2----------------|
|----------------|-----------------------------------|
|-0---------8----|--------------0-0------------------|
|------3---------|------------------3-3-1-------0----|

|-----------------|
|-----------------|
|-2---------------|
|------2----------|
|-0-0-------------|
|------3-3--1-1-0-|





Comments


Popular Ulli Boegershausen tabs & chords
Dear Mr President Tabs
Hit The Road Jack Tabs
Holy Night Silent Night Tabs
In A Constant State Of Flux Tabs
It Could Have Been Tabs
Kiss From A Rose Tabs
Mad World Tabs
Right Here Waiting Tabs
Wake Me Up When September Ends Tabs
You Are The Sunshine Of My Life Intro Tabs


Song lyrics



↑ Back to top | Tablatures and chords are parodies/interpretations of the original songs. You may use it for private study, scholarship, research or language learning purposes only
© 2014 AZChords.com Contact us | Privacy policy | DMCA | Add/correct tabs | Request tabs | Top 50 tabs