>
 >
Right Here Waiting

Right Here Waiting Guitar Tabs

Ulli Boegershausen - Right Here Waiting chords, tabs, tablatures, lyrics

Guitar lessons | Add/correct | Request | Top 50 tabs Artists:  A B C D E F G H I J K L M N O P Q R S T U V W X Y Z 0-9

Right Here Waiting Guitar Tabs – Ulli Boegershausen

CD, Sheet music, Poster

Do you like Right Here Waiting? Share with your friends now
Tabs
Standard tuning


                        Richard Marx
                     Right here waiting
                     Ulli Boegershausen
intro
|-------|-3-----|-------|-3----|-8---7--|-5----------|
|-------|-3-----|-------|-3----|-5------|-5----8-----|
|-2-----|-0-----|-2-----|-0----|-5------|-5----------|
|-2-----|-2-----|-2-----|------|--------|------------|
|-------|-3-----|-3-----|-2----|-8------|-5--------0-|
|-1-----|-------|-1-----|------|--------|------------|

Chorus (LET EVERYTHING RING FROM HERE) 
|-----------3--3--1--0-------|-----------------0--1--0---------|
|-----------------------3----|-----------3--3------------------|
|--------0-------------------|--------0------------------------|
|-----2----------------------|-----0---------------------------|
|--3-------------------------|--2------------------------------|
|----------------------~-----|---------------------------------|
 
|-----------------------0----|---------------------------------|
|-----------1-1----3---------|----3-----1-----0----------------|
|-------------0--------------|-------0-----------2--0----------|
|------2---------------------|---------------------------------|
|---0------------------------|---------------------------------|
|----------------------~-----|--1----------3-------------------|
 
|-----------3--3--1--0-------|-----------------0--1--0---------|
|-----------------------3----|-----------3--3------------------|
|--------0-------------------|--------0------------------------|
|-----2----------------------|-----0---------------------------|
|--3-------------------------|--2------------------------------|
|----------------------~-----|---------------------------------|
 
|----------------0----oh1----|----0----------------------------|
|--------1---3---------------|----------3-----1--0--1----------|
|------------0---------------|-------0-------------------------|
|-----2----------------------|---------------------------------|
|--0-------------------------|---------------------------------|
|----------------------~-----|--1----------3-------------------|
                              Verse 1
|----------------------------|---------------------------------|
|-----------0---1------------|-----------------1--3--3---------|
|--------2-------------------|--------0-----0------------------|
|-----2----------------------|-----2---------------------------|
|--0-------------------------|--3--------3---------------------|
|----------------------~-----|---------------------------------|
 
|-----0--------0-------------|---------------------------------|
|-----------------3--1--3----|-----1---------------0-----------|
|----------------------------|-------2----------2--------------|
|--------0-------------------|--0------------0-----------------|
|----------------------------|------------0--------------------|
|--1--------1----------------|---------------------------------|
 
|----------------------------|---------------------------------|
|--1-----3--0----------------|-----------------1--3--3---------|
|--2--------------2--0h2p0---|--------0-----0------------------|
|-----0--------0-------------|-----2---------------------------|
|----------------------------|--3--------3---------------------|
|--3--------------------~----|---------------------------------|

|-----0--------0-------------|---------------------------------|
|-----------------3--1--3----|-----1---------------0-----------|
|----------------------------|-------2----------2--------------|
|--------0-------------------|--0------------0-----------------|
|----------------------------|------------0--------------------|
|--1--------1----------------|---------------------------------|
                              Interlude
|----------------------------|--------------------0--1---------|
|--1-----3--0-------1--1-----|--------------1h3----------------|
|--2--------0----------0-----|--------0-----0------------------|
|---------------0------------|-----2---------------------------|
|-----0----------------------|--0--------0---------------------|
|--3-------------------------|---------------------------------|
 
|--------0-------------------|--------------------0--1---------|
|-----------1-----3----------|--------------1h3----------------|
|-----0----------------------|--------0-----0------------------|
|------------------------0---|-----2---------------------------|
|----------------------2---2-|--0--------0---------------------|
|--1-----------0-----3-------|---------------------------------|
                              Chorus
|--------0-------------------|-----------3--3--3--1--0---------|
|-----------1-----1----------|-----------1--1--1--1--1--3------|
|--------------------------0-|--------0------------------------|
|-----0------------------0---|-----2---------------------------|
|--------------------0-2-----|--3------------------------------|
|--3-----------1-------------|---------------------------------|
 
|-----------------0----------|---------------------------------|
|--------1--1--3-------------|-----3-----1-----0---------------|
|-----------0----------------|--------0-----------2--0---------|
|-----2----------------------|---------------------------------|
|--0-------------------------|---------------------------------|
|----------------------~-----|--1-----------3------------------|
 
|-----------3--3--1--0-------|-----------------0--1--0---------|
|-----------1--1--1--1--3----|-----------3--3------------------|
|--------0-------------------|--------0--0--0------------------|
|-----2----------------------|-----0---------------------------|
|--3-------------------------|---------------------------------|
|----------------------~-----|--3------------------------------|
 
|---------------0-oh1--------|-----0---------------------------|
|--------1--3----------------|-----------3-----1--0--1---------|
|-----------0----------------|--------0------------------------|
|-----2----------------------|---------------------------------|
|--0-------------------------|---------------------------------|
|----------------------~-----|--1-----------3------------------|
 
|----------------------------|---------------------------------|
|-----------0----1-----------|-----------0--1------------------|
|--------2-------------------|--------2------------------------|
|-----2----------------------|-----2---------------------------|
|--0-------------------------|--0--------------0---------------|
|-------------------0--------|---------------------------------|
Verse 2
|----------------------------|-----0--------0------------------|
|-----------------1--3--3----|-----------------3--1--3---------|
|--------0-----0-------------|---------------------------------|
|-----2----------------------|--------0------------------------|
|--3--------3----------------|---------------------------------|
|----------------------------|--1--------1---------------------|

|----------------------------|---------------------------------|
|----------------------0-----|--1-----3--0---------------------|
|-----1-------------2--------|--2------------2--0h2-0----------|
|------2-------0-------------|-----0------0--------------------|
|--0--------0----------------|---------------------------------|
|----------------------------|--3------------------------------|
 
|----------------------------|-----0--------1--0---------------|
|-----------------1--3--3----|--------------------1--3---------|
|--------0-----0-------------|---------------------------------|
|-----2----------------------|--------0------------------------|
|--3--------3----------------|---------------------------------|
|----------------------------|--1--------1---------------------|
 
|----------------------------|---------------------------------|
|-----1-----------------0----|--1-----3--0--------1--1---------|
|-------2------------2-------|--2--------0-----------0---------|
|--0------------0------------|-----0-----------0---------------|
|------------0---------------|---------------------------------|
|----------------------------|--3-----------3------------------|

Repeat Interlude and Chorus

Break
|----------------------------|--0----1--0----------------------|
|------r----------1--3-------|--0------------------------------|
|------e-------0--0----------|--0----------------0--2----------|
|--3---s---3-----------------|--2-------------2----------------|
|--3---t---3-----------------|--3----------3-------------------|
|--1-------1------3----------|---------------------------------|
 
|----------------------------|---------------------------------|
|-----------------1--1h3--1--|---------------------------------|
|-----------2-----2--2----2--|---------------------------------|
|--------3-------------------|--------3-----------2------------|
|-----3----------------------|-----3-----3-----3-----3---------|
|--1-----------1-------------|--1-----------0------------------|
 
|----------------------------|--0-----1--0---------------------|
|--------1---------1--3------|--0------------------------------|
|-----2--------0-------------|--0--0--------------0--2---------|
|--0-------------------------|--2--------------2---------------|
|-----------0----------------|--3-----------3------------------|
|------------------3---------|---------------------------------|

|---------------------3--3---|---------------------------------|
|---------1--1--------1--1---|--------------1-----0------------|
|---------0--0--------2--2---|--------0-----2-----0------------|
|------0---------------------|-----0-----------0-----0---------|
|------------------0---------|---------------------------------|
|--1------------1------------|--3--------3---------------------|
 
Chorus then Interlude then Chorus.
But end with the measure right after the hammer on.

This is a neat song to play.
Just listen to the song to follow along.
your welcome. (:
it is 1:56 am.




Order:
Intro
Chorus
Verse 1
Interlude 
Chorus
Verse 2
Interlude 
Chorus
Break
Chorus
Interlude
Chorus
 





Comments


Popular Ulli Boegershausen tabs & chords
Dear Mr President Tabs
Hit The Road Jack Tabs
Hit The Road Jack 2 Tabs
Hit The Road Jack Intro Tabs
Holy Night Silent Night Tabs
It Could Have Been Tabs
Kiss From A Rose Tabs
Mad World Tabs
Wake Me Up When September Ends Tabs
You Are The Sunshine Of My Life Intro Tabs


Song lyrics



↑ Back to top | Tablatures and chords are parodies/interpretations of the original songs. You may use it for private study, scholarship, research or language learning purposes only
© 2014 AZChords.com Contact us | Privacy policy | DMCA | Add/correct tabs | Request tabs | Top 50 tabs