>
 >
Madman 2

Madman 2 Guitar Tabs

Ugly Kid Joe - Madman 2 chords, tabs, tablatures, lyrics

Guitar lessons | Add/correct | Request | Top 50 tabs Artists:  A B C D E F G H I J K L M N O P Q R S T U V W X Y Z 0-9

Madman 2 Guitar Tabs – Ugly Kid Joe

CD, Sheet music, Poster

Do you like Madman 2? Share with your friends now
Bass TabsChordsTabsTabs v2Tabs v3
MADMAN
                           As recorded by Ugly Kid Joe
                 (From the 1989 Album AS UGLY AS THEY WANNA BE)

Words and Music by Ugly Kid Joe


Gtr I (Eb Ab Db Gb Bb Eb) - 'Untitled'
Gtr II (Eb Ab Db Gb Bb Eb) - 'Untitled'

 Intro
  Moderate Rock Q=126
 4/4
  Gtr I
                                  PM--|   PM        PM
  Wx3          H    E. S  Q       E S S E S S S S S S S S S S
|------------|----------------||------------------------------|
|------------|----------------||o-----------------------------|
|------------|----------------||------------------------------|
|------------|----------------||--------7---6---5-----4h5p4h5-|
|------------|----------------||o-0-0-0---0---------0---------|
|------------|---------x-17\--||------------------------------|


  PM--|   PM    PM
  E S S E S S S S S S E.    +S
|-------------------------------|
|-----------------7s8s7b7.5-(7)-|
|-----------------7s8s7b7.5-(7)-|
|-------7---6-------------------|
|-0-0-0---0---------------------|
|---------------0---------------|


                               1.
  PM--|   PM        PM          PM--|            ~
  E S S E S S S S S S S S S S   E S S S E S +Q   Q
|-----------------------------|-----------------------||
|-----------------------------|----------------------o||
|-----------------------------|-------5s6-7-(7)--5----||
|-------7---6---5-----4h5p4h5-|-------5s6-7-(7)-------||
|-0-0-0---0---------0---------|-0-0-0-3s4-5-(5)------o||
|-----------------------------|-----------------------||


  2.
                  ~
   |-3--|  |-3--|
   E E  E  E  E E Q   Q
|---------12--------------||
|----9-12--5-12-9---------||
|-/9----4-----4---9-------||
|----6----------6---------||
|-/7--------------7-------||
|--------------------14\--||


 1st Verse
  PM--|   PM        PM          PM--|   PM    PM
  E S S E S S S S S S S S S S   E S S E S S S S S S E E
|-----------------------------|--------------------------|
|-----------------------------|--------------------------|
|-----------------------------|--------------------------|
|-------7---6---5-----4h5p4h5-|-------7---6-----4h5------|
|-0-0-0---0---------0---------|-0-0-0---0-----0-----3p0--|
|-----------------------------|--------------------------|


  E. S +E  E E S S S S E    E. S +E  E E S S S S E
|--------------8-8-8-8----|--------------8-8-8-8-8-|
|--------------8-8-8-8----|-7--5-(5)-7---8-8-8-8-8-|
|-7--5-(5)-7---5-5-5-5-x\-|-7--5-(5)-7---5-5-5-5-5-|
|-7--5-(5)-7---5-5-5-5-x\-|-7--5-(5)-7---5-5-5-5-5-|
|-5--3-(3)-5--------------|-5--3-(3)-5-------------|
|-5--------5--------------|------------------------|


  PM--|   PM        PM
  E S S E S S S S S S S S S S
|------------------------------|
|------------------------------|
|------------------------------|
|-------7---6---5-----4h5p4h5--|
|-0-0-0---0---------0----------|
|------------------------------|


  PM--|   PM    PM
  E S S E S S S S S S E.    +S
|-------------------------------|
|-----------------7s8s7b7.5-(7)-|
|-----------------7s8s7b7.5-(7)-|
|-------7---6-------------------|
|-0-0-0---0-----0---------------|
|-------------------------------|


  PM--|   PM        PM          PM--|   PM    PM
  E S S E S S S S S S S S S S   E S S E S S S S S S E E
|-----------------------------|--------------------------|
|-----------------------------|--------------------------|
|-----------------------------|--------------------------|
|-------7---6---5-----4h5p4h5-|-------7---6-----4h5------|
|-0-0-0---0---------0---------|-0-0-0---0-----0-----3p0--|
|-----------------------------|--------------------------|


  E. S +E  E E S S S S E    E. S +E  E E S S S S E
|--------------8-8-8-8----|--------------8-8-8-8-8-|
|--------------8-8-8-8----|-7--5-(5)-7---8-8-8-8-8-|
|-7--5-(5)-7---5-5-5-5-x\-|-7--5-(5)-7---5-5-5-5-5-|
|-7--5-(5)-7---5-5-5-5-x\-|-7--5-(5)-7---5-5-5-5-5-|
|-5--3-(3)-5--------------|-5--3-(3)-5-------------|
|-5--------5--------------|------------------------|


  PM--|   PM        PM
  E S S E S S S S S S S S S S
|------------------------------|
|------------------------------|
|------------------------------|
|-------7---6---5-----4h5p4h5--|
|-0-0-0---0---------0----------|
|------------------------------|


                               Chorus
                             $
  PM--|   PM    PM        ~
  E S S E S S S S S   +S  Q     H    +E  E E E   H    +E  E E E
|----------------------------||----------------|----------------|
|----------------------------||----------------|----------------|
|-----------------7b8-(7)-7--||-9----(9)-9-9-8-|-7----(7)-7-7-8-|
|-------7---6----------------||-9----(9)-9-9-8-|-7----(7)-7-7-8-|
|-0-0-0---0-----0------------||-7----(7)-7-7-6-|-5----(5)-5-5-6-|
|----------------------------||----------------|----------------|


                                   PM--|   PM        PM
  H    H      Q  S S S S Q   Q     E S S E S S S S S S S S S S
|-----------|--------------------|------------------------------|
|-----------|--------------------|------------------------------|
|-9----7----|-5--5-5-5-7---------|------------------------------|
|-9----7----|-5--5-5-5-7---------|-------7---6---5-----4h5p4h5--|
|-7----5----|-3--3-3-3-5---------|-0-0-0---0---------0----------|
|-----------|---------------17\--|------------------------------|


  PM--|   PM    PM
  E S S E S S S S S S E.    +S
|-------------------------------|
|-----------------7s8s7b7.5-(7)-|
|-----------------7s8s7b7.5-(7)-|
|-------7---6-------------------|
|-0-0-0---0---------------------|
|---------------0---------------|


                                             To Coda
  PM--|   PM        PM                            ~
  E S S E S S S S S S S S S S   E E S S S S S S E Q
|-----------------------------|----------------------||
|-----------------------------|----------------------||
|-----------------------------|----------------------||
|-------7---6---5-----4h5p4h5-|----------------------||
|-0-0-0---0---------0---------|-----7-7---6-----5-3--||
|-----------------------------|-0-0-----0-----0------||


 2nd Verse
  PM--|   PM        PM
  E S S E S S S S S S S S S S
|-----------------------------|
|-----------------------------|
|-----------------------------|
|-------7---6---5-----4h5p4h5-|
|-0-0-0---0---------0---------|
|-----------------------------|


  PM--|   PM    PM
  E S S E S S S S S S E E   E. S +E  E E S S S S E
|-------------------------|--------------8-8-8-8-----|
|-------------------------|--------------8-8-8-8-----|
|-------------------------|-7--5-(5)-7---5-5-5-5-x\--|
|-------7---6-----4h5-----|-7--5-(5)-7---5-5-5-5-x\--|
|-0-0-0---0-----0-----3p0-|-5--3-(3)-5---------------|
|-------------------------|-5--------5---------------|


                           PM--|   PM        PM
  E. S +E  E E S S S S E   E S S E S S S S S S S S S S
|--------------8-8-8-8-8-|-----------------------------|
|-7--5-(5)-7---8-8-8-8-8-|-----------------------------|
|-7--5-(5)-7---5-5-5-5-5-|-----------------------------|
|-7--5-(5)-7---5-5-5-5-5-|-------7---6---5-----4h5p4h5-|
|-5--3-(3)-5-------------|-0-0-0---0---------0---------|
|------------------------|-----------------------------|


                D.S. al Coda
                          ~
  E S S E S S S S S   +S  Q
|-----------------------------||
|-----------------------------||
|-----------------7b8-(7)-7---||
|-------7---6-----------------||
|-0-0-0---0-------------------||
|---------------0-------------||


 Bridge
  &
                      PM--|
  E. S +E  E +S  E. S S S S   E. S +E  E +E  S S S E.
|---------------------------|----------------5-5-5-5\-|
|---------------------------|----------------5-5-5-5\-|
|-7--5-(5)-7-(7)-5----------|-7--5-(5)-2-(2)-2-2-2-2\-|
|-7--5-(5)-7-(7)-5----------|-7--5-(5)-2-(2)----------|
|-5--3-(3)-5-(5)-3--x-3-3-3-|-5--3-(3)-0-(0)----------|
|---------------------------|-------------------------|


                      PM--|
  E. S +E  E +S  E. S S S S
|----------------------------|
|----------------------------|
|-7--5-(5)-7-(7)-5-----------|
|-7--5-(5)-7-(7)-5-----------|
|-5--3-(3)-5-(5)-3--x-3-3-3--|
|----------------------------|


  E. S +E  E +E  S S S S E
|----------5-(5)-5-5-5-5-x\-|
|----------5-(5)-5-5-5-5-x\-|
|-7--5-(5)-2-(2)-2-2-2-2-x\-|
|-7--5-(5)-2-(2)-2-2-2-2-x\-|
|-5--3-(3)-0-(0)------------|
|---------------------------|


                      PM--|
  E. S +E  E +S  E. S S S S   E. S +E  E +E  S S S E.
|---------------------------|----------------5-5-5-5\--|
|---------------------------|----------------5-5-5-5\--|
|-7--5-(5)-7-(7)-5----------|-7--5-(5)-2-(2)-2-2-2-2\--|
|-7--5-(5)-7-(7)-5----------|-7--5-(5)-2-(2)-----------|
|-5--3-(3)-5-(5)-3--x-3-3-3-|-5--3-(3)-0-(0)-----------|
|---------------------------|--------------------------|


                             3/8        4/4
                                                    \2.5/
                      PM--|
  E. S +E  E +S  E. S S S S   E. S +E    H..       +E       +W
|---------------------------|----------|------------------|--------|
|---------------------------|----------|------------------|--------|
|-7--5-(5)-7-(7)-5----------|-7--5-(5)-|-2---------(2)----|-(2)----|
|-7--5-(5)-7-(7)-5----------|-7--5-(5)-|-2---------(2)----|-(2)----|
|-5--3-(3)-5-(5)-3--x-3-3-3-|-5--3-(3)-|------------------|--------|
|---------------------------|----------|------------------|--------|
|
| Gtr II
| W                           W          W                  +W
|---------------------------|----------|------------------|--------|
|---------------------------|----------|------------------|--------|
|---------------------------|----------|------------------|--------|
|---------------------------|----------|------------------|--------|
|---------------------------|----------|-0----------------|-(0)----|
|---------------------------|----------|------------------|--------|


   \2.5/   \2.5/   \2.5/   \2.5/
                                                     PM----|
  +Q      +Q      +Q      +Q        W             Q  S S S S S E S S S E
|---------------------------------|-----------||-------------------------|
|---------------------------------|-----------||o------------------------|
|-(2)-----(2)-----(2)-----(2)-----|-----------||--2----------------------|
|-(2)-----(2)-----(2)-----(2)-----|-x\--------||--2----------------------|
|---------------------------------|-x\--------||o-0--0-0-----------------|
|---------------------------------|-x\--------||---------0-3---3-0-3p2-0-|
|
| +W                                W             W
|---------------------------------|-----------||-------------------------|
|---------------------------------|-----------||o------------------------|
|---------------------------------|-----------||-------------------------|
|---------------------------------|-----------||-------------------------|
|-(0)-----------------------------|-x\--------||o------------------------|
|---------------------------------|-----------||-------------------------|


     PM--|                   PM----|                  PM--|
  Q  S S S S +S  E S Q    Q  S S S S S E S S S E   Q  S S S S S S S S Q
|-----------------------|------------------------|------------------------||
|-2---------------------|-2----------------------|-2---------------------o||
|-2------------------7--|-2----------------------|-2--------7---7-----5---||
|-2------------------7--|-2----------------------|-2--------7---7-----5---||
|-0--0-0---5-(5)-5---5--|-0--0-0-----------------|-0--0-0-0-5---5---0-3--o||
|--------0-3-(3)-3-0----|--------0-3---3-0-3p2-0-|------------------------||


  Q  E S S S E S S S E   Q  S S S S S S S S  Q
|-2--2-----------------|-2--2-------------------|
|-3--3-----------------|-3--3-------------------|
|-2--2-----------------|-2--2---------------10--|
|-0--0---5---5---------|-0--0-0---5---5-----10--|
|-0----0-3---3-2-3p2-0-|-0------0-3---3---0--8--|
|----------------------|------------------------|


     PM----|                  PM--|
  Q  S S S S S E S S S E   Q  S S S S S S S S Q
|------------------------|-----------------------|
|-2----------------------|-2---------------------|
|-2----------------------|-2--------7---7-----5--|
|-2----------------------|-2--------7---7-----5--|
|-0--0-0-----------------|-0--0-0-0-5---5---0-3--|
|--------0-3---3-0-3p2-0-|-----------------------|


  H    +E  E E E   H    +E  E E E   W          Q  H.
|----------------|----------------|----------|----------||
|----------------|----------------|----------|----------||
|-9----(9)-9-9-8-|-7----(7)-7-7-8-|-9--------|-7--------||
|-9----(9)-9-9-8-|-7----(7)-7-7-8-|-9--------|-7--------||
|-7----(7)-7-7-6-|-5----(5)-5-5-6-|-7--------|-5--x\----||
|----------------|----------------|----------|----------||


 Guitar Solo
                            ~~~~
   Q..             +S      +Q.           E
|--------------------------------------------|
|--------------------------------------------|
|-12pb13==========(12)b14-(12)-----------x\--|
|----------------------------------------x\--|
|--------------------------------------------|
|--------------------------------------------|
|
| Gtr II
|  PM-------|   PM                 PM
|  E      S S E S   S       S  S S S S S S S
|--------------------------------------------|
|--------------------------------------------|
|--------------------------------------------|
|-------------7-----6----------5-----4h5p4h5-|
|--0------0-0---0------------------0---------|
|--------------------------------------------|


                            ~~~~               ~~
   E     +E     E  E       +S   S      +S   S  Q
|--------------13----------------------------------|
|-13b15-(13)------13b15---(13)-13pb15r(13)p10-13---|
|--------------------------------------------------|
|--------------------------------------------------|
|--------------------------------------------------|
|--------------------------------------------------|
|
|  PM--------|                                 ~~
|  E      S  S  E  S    S   S   S       S   S  Q
|--------------------------------------------------|
|--------------------------------------------------|
|---------------7-------5-------7p======5------5---|
|--0------0--0-----0------------------------7------|
|--------------------------------------------------|
|--------------------------------------------------|


          ~~~~~~~~~~
                 |-3-|              |--------6---------|  |-----------7-----------|
   E     +E     +E   S  T  T  T  T  S  S    S  S  S    S  S  S    S  S    S  S    S
|-------------------17h20p17----17h20p17------17h20p==17----17h==20p17------17---17-|
|-20b22-(20)---(20)----------19------------19------------19--------------19---------|
|-----------------------------------------------------------------------------------|
|-----------------------------------------------------------------------------------|
|-----------------------------------------------------------------------------------|
|-----------------------------------------------------------------------------------|
|
|  PM--------|          PM                          PM
|  E      S  S   E      S     S     S    E          S     S    S       S       S
|-----------------------------------------------------------------------------------|
|-----------------------------------------------------------------------------------|
|-----------------------------------------------------------------------------------|
|----------------7------------6----------5----------------4h===5p======4h======5----|
|--0------0--0----------0---------------------------0-------------------------------|
|-----------------------------------------------------------------------------------|


   |-------6--------|  |--3--|              |-------6--------|
   S  S  S  S  S    S  S  S  S  T  T  T  T  S  S    S  S  S  S  E.        +S
|-20p19p17-17---------19----17-------------------------------------------------|
|-------------20---20----20----17h19p17----17-17---------------19b21-----(19)--|
|---------------------------------------19---------20p19p17-17-19b21-----(19)--|
|------------------------------------------------------------------------------|
|------------------------------------------------------------------------------|
|------------------------------------------------------------------------------|
|
|  PM------------|              PM               PM
|  E        S    S     E        S     S     S    S     E        S    S E
|------------------------------------------------------------------------------|
|------------------------------------------------------------------------------|
|------------------------------------------------------------------------------|
|------------------------------------------------------------------------------|
|----------------------7--------------6----------------5--------3h===5-3-------|
|--0--------0----0--------------0----------------0-----------------------------|


  PM|      PM
                                |---3---|
  E E    E S  S S  E   S  S  S  S  S    S
|-----------------------------------------|
|-----------------------------------------|
|-------14---13---12-----11h12p11h12p==11-|
|-----------------------------------------|
|-0-0------0------------------------------|
|-----------------------------------------|
|
| PM--|    PM          PM
| E S S  E S  S S  S S S  S  S  S    S
|-----------------------------------------|
|-----------------------------------------|
|-----------------------------------------|
|--------7----6----5------4h=5p=4h===5----|
|-0-0-0----0-----------0------------------|
|-----------------------------------------|


  PM--|    PM                           PM--|    PM
  E S S  E S  S S  S  S  S  E     +E    E S S  E S  S S  E S  Q
|-----------------22p20----20b24-(20)-|--------------------------------|
|-------15---13---------22------------|--------------------------------|
|-------------------------------------|-------14---13---12---14\-------|
|-0-0-0----0--------------------------|--------------------------------|
|-------------------------------------|-0-0-0----0---------------------|
|-------------------------------------|--------------------------------|
|
| PM--|                     ~~~~~       PM--|    PM        PM
| E S S  E S  S S  S  S  S  Q           E S S  E S  S S  E S  S S S S
|-------------------------------------|--------------------------------|
|-------------------------------------|--------------------------------|
|--------7----5----7p=5-----5---------|--------------------------------|
|-0-0-0----0-------------7------------|--------7----6----5----4h5p4h5--|
|-------------------------------------|-0-0-0----0---------0-----------|
|-------------------------------------|--------------------------------|


                          |-3-|                               |----6----|
  S S S S S S S S S S S S S S S S S   S S S S S S S S S S S S S S S S S S
|-4p0---2p0---4p0---2p0---4p0---2---|-7p4-0-6p4-0-7p4-0-6p4-0-7p4p0-6p4p0--|
|-----0-----0-----0-----0-----0---0-|--------------------------------------|
|-----------------------------------|--------------------------------------|
|-----------------------------------|--------------------------------------|
|-----------------------------------|--------------------------------------|
|-----------------------------------|--------------------------------------|
|
| PM----|     PM    PM                PM----|     PM    PM    ~~
| E   S S S S S S S S E   E     E     E   S S S S S S S S E   Q
|-----------------------------------|--------------------------------------|
|-----------------------------------|--------------------------------------|
|-----------------------------------|--------------------------------------|
|-----------------------------------|--------------------------------------|
|---------7-7---6-----5---6-----5---|---------7-7---6-----5---3------------|
|-0---0-0-----0-----0---------------|-0---0-0-----0-----0------------------|


                             |----6----|
   S S S S S S  S S S S S S  S S S S S S
|-10p7-0-9p7-0-10p7-0-9p7-0-10p7p0-9p7p0-|
|----------------------------------------|
|----------------------------------------|
|----------------------------------------|
|----------------------------------------|
|----------------------------------------|
|
|  PM----|      PM    PM
|  E   S S S S  S S S S E    E     E
|----------------------------------------|
|----------------------------------------|
|----------------------------------------|
|----------------------------------------|
|----------7-7----6-----5----6-----5-----|
|--0---0-0------0-----0------------------|


   S  S S  S  S S  S  S S  S  S S  E     +E
|-16p12-0-14p12-0-16p12-0-14p12-0-17b20-(17)-||
|--------------------------------------------||
|--------------------------------------------||
|--------------------------------------------||
|--------------------------------------------||
|--------------------------------------------||
|
|  PM-----|        PM      PM      ~~~~~
|  E    S  S  S S  S  S S  S  E    Q
|--------------------------------------------||
|--------------------------------------------||
|--------------------------------------------||
|--------------------------------------------||
|-------------7-7-----6-------5----3---------||
|--0----0--0-------0-------0-----------------||


                    ~                                                   ~
  E S S S S E +S  S E E E   E S S S S E +S  S E E E   E S S S S E +E  S S E E
|-------------------------|-------------------------|-------------------------|
|-----------7-(7)---------|-----------7-(7)---8-7---|-----------7-(7)---------|
|-7---5-------------7-5---|-7---5-------------------|-7---5-------------7-5---|
|---0-----0-------0-----0-|---0-----0-------0-----0-|---0-----0-------0-------|
|-------------------------|-------------------------|-----------------------0-|
|-------------------------|-------------------------|-------------------------|


  E S S S S E +S  S E E E   E S S S S E +S  S E E S S
|-------------------------|---------------------------|
|-------------------------|-----------7-(7)-----------|
|-----------6-(6)---------|-7---5-------------7-5-----|
|-7---5-------------7-5-0-|---0-----0-------0-----0-0-|
|---0-----0-------0-------|---------------------------|
|-------------------------|---------------------------|


  E S S S S E +S  S E E S S
|---------------------------|
|-----------7-(7)---8-7-----|
|-7---5---------------------|
|---0-----0-------0-----0-0-|
|---------------------------|
|---------------------------|


                    ~   PM|
  E S S S S E +S  S E E S S   E. S +E  E +Q   +Q
|---------------------------|-----------------------||
|-----------7-(7)-----------|-----------------------||
|-7---5-------------7-5-----|-9--9-(9)-9-(9)--(9)/--||
|---0-----0-------0-----0---|-9--9-(9)-9-(9)--(9)/--||
|-------------------------0-|-7--7-(7)-7-(7)--(7)/--||
|---------------------------|-----------------------||


  PM--|   PM        PM          PM--|   PM    PM
  E S S E S S S S S S S S S S   E S S E S S S S S S E.    +S
|-----------------------------|-------------------------------|
|-----------------------------|-----------------7s8s7b7.5-(7)-|
|-----------------------------|-----------------7s8s7b7.5-(7)-|
|-------7---6---5-----4h5p4h5-|-------7---6-------------------|
|-0-0-0---0---------0---------|-0-0-0---0---------------------|
|-----------------------------|---------------0---------------|


  PM--|   PM        PM
  E S S E S S S S S S S S S S
|-------------------------------|
|-------------------------------|
|-------------------------------|
|-------7---6---5-----4h5p4h5---|
|-0-0-0---0---------0-----------|
|-------------------------------|


                  ~
   |-3--|  |-3--|
   E E  E  E  E E Q   Q
|---------12--------------||
|----9-12--5-12-9---------||
|-/9----4-----4---9-------||
|----6----------6---------||
|-/7--------------7-------||
|--------------------14\--||


 3rd Verse
  PM--|   PM        PM          PM--|   PM    PM
  E S S E S S S S S S S S S S   E S S E S S S S S S E E
|-----------------------------|--------------------------|
|-----------------------------|--------------------------|
|-----------------------------|--------------------------|
|-------7---6---5-----4h5p4h5-|-------7---6-----4h5------|
|-0-0-0---0---------0---------|-0-0-0---0-----0-----3p0--|
|-----------------------------|--------------------------|


  E. S +E  E E S S S S E    E. S +E  E E S S S S E
|--------------8-8-8-8----|--------------8-8-8-8-8-|
|--------------8-8-8-8----|-7--5-(5)-7---8-8-8-8-8-|
|-7--5-(5)-7---5-5-5-5-x\-|-7--5-(5)-7---5-5-5-5-5-|
|-7--5-(5)-7---5-5-5-5-x\-|-7--5-(5)-7---5-5-5-5-5-|
|-5--3-(3)-5--------------|-5--3-(3)-5-------------|
|-5--------5--------------|------------------------|


  PM--|   PM        PM
  E S S E S S S S S S S S S S
|------------------------------|
|------------------------------|
|------------------------------|
|-------7---6---5-----4h5p4h5--|
|-0-0-0---0---------0----------|
|------------------------------|


                               Chorus Out
  PM--|   PM    PM        ~
  E S S E S S S S S   +S  Q     H    +E  E E E   H    +E  E E E
|----------------------------||----------------|----------------|
|----------------------------||----------------|----------------|
|-----------------7b8-(7)-7--||-9----(9)-9-9-8-|-7----(7)-7-7-8-|
|-------7---6----------------||-9----(9)-9-9-8-|-7----(7)-7-7-8-|
|-0-0-0---0------------------||-7----(7)-7-7-6-|-5----(5)-5-5-6-|
|---------------0------------||----------------|----------------|


                          PM------------|
  E. S +E  E E. S +E  E   S S S S S S S S Q   Q
|-----------------------|-------------------------|
|-----------------------|-------------------------|
|-----------------------|-------------------------|
|----6-(6)------4-(4)---|-------------------------|
|-7--------7-5--------5-|-3-3-3-3-3-3-3-5---------|
|-----------------------|--------------------17\--|


  PM--|   PM        PM
  E S S E S S S S S S S S S S
|------------------------------|
|------------------------------|
|------------------------------|
|-------7---6---5-----4h5p4h5--|
|-0-0-0---0---------0----------|
|------------------------------|


  PM--|   PM    PM
  E S S E S S S S S S E.    +S
|-------------------------------|
|-----------------7s8s7b7.5-(7)-|
|-----------------7s8s7b7.5-(7)-|
|-------7---6-------------------|
|-0-0-0---0---------------------|
|---------------0---------------|


  PM--|   PM        PM                          ~
  E S S E S S S S S S S S S S   S S S S S S S S Q  Q
|-----------------------------|------------------------*|
|-----------------------------|-8p7-5---5--------------*|
|-----------------------------|-------8---8p7p5--------*|
|-------7---6---5-----4h5p4h5-|-----------------7------*|
|-0-0-0---0---------0---------|------------------------*|
|-----------------------------|------------------------*|


Duration Legend
---------------
W - whole; H - half; Q - quarter; E - 8th; S - 16th; T - 32nd; X - 64th; a - acciaccatura
+ - note tied to previous; . - note dotted; .. - note double dotted
Uncapitalized letters represent notes that are staccato (1/2 duration)
Irregular groupings are notated above the duration line
Duration letters will always appear directly above the note/fret number it represents the
duration for.  Duration letters with no fret number below them represent rests.  Multi-
bar rests are notated in the form Wxn, where n is the number of bars to rest for.  Low
melody durations appear below the staff

Tablature Legend
----------------
 h   - hammer-on
 p   - pull-off
 b   - bend
 pb  - pre-bend
 r   - bend release (if no number after the r, then release immediately)
 /\  - slide into or out of (from/to "nowhere")
 s   - legato slide
 S   - shift slide
<n>  - natural harmonic
[n]  - artificial harmonic
n(n) - tapped harmonic
 ~   - vibrato
 tr  - trill
 T   - tap
 TP  - trem. picking
 PM  - palm muting
\n/  - tremolo bar dip; n = amount to dip
 \n  - tremolo bar down
 n/  - tremolo bar up
/n\  - tremolo bar inverted dip
 =   - hold bend; also acts as connecting device for hammers/pulls
 <>  - volume swell (louder/softer)
 x   - on rhythm slash represents muted slash
 o   - on rhythm slash represents single note slash

Misc Legend
-----------
 |  - bar
||  - double bar
||o - repeat start
o|| - repeat end
*|  - double bar (ending)
 :  - bar (freetime)
 $  - Segno
 &  - Coda
Tempo markers - <E/E./Q/Q./H/H.> = BPM(8/16=s8/s16), where s8 = swing 8ths, s16 = swing 16ths





Comments


Popular Ugly Kid Joe tabs & chords
Father 1 Bass Tabs
Candle Song Chords
Madman Chords
Would You Like To Be There Unplugged Chords
Cats In The Cradle Drum Tabs
Cat In The Cradle Tabs
Cats In The Cradle 1 Tabs
Don't Go Tabs
Goddamn Devil Tabs
So Damn Cool 1 Tabs


Song lyrics



↑ Back to top | Tablatures and chords are parodies/interpretations of the original songs. You may use it for private study, scholarship, research or language learning purposes only
© 2014 AZChords.com Contact us | Privacy policy | DMCA | Add/correct tabs | Request tabs | Top 50 tabs