>
 >
Madman

Madman Bass Tabs

Ugly Kid Joe - Madman chords, tabs, tablatures, lyrics

Guitar lessons | Add/correct | Request | Top 50 tabs Artists:  A B C D E F G H I J K L M N O P Q R S T U V W X Y Z 0-9

Madman Bass Tabs – Ugly Kid Joe

CD, Sheet music, Poster

Do you like Madman? Share with your friends now
Bass TabsChordsTabsTabs v2Tabs v3
THE MOST COMPLETE MADMAN BASS TAB EVER!

author- ameya oke (pune,india) 
normal tuning EADG

Intro (after 4 guitar bars)

-------------------------------------7/8/7------------------------------------
---------7--6--5--4-------------7--6----------------7--6--5--4----------------
--0--0-0----------------0--0-0---------------0--0-0---------------0-----------
  s  s s s  s  s  s     s  s s  s   s p      s  s s s  s  s  s    s m                   
                          

verse 1(with vocals)
---------7--6--5--4-------------7--6--4/5---------------------7-----7---7-7---
--0--0-0----------------0--0-0------------3----5--3--5---5-5------------------
  s  s s s  s  s  s     s  s s  s   s p   s 

--------------------------------------7/8/7-----------------------------------
---------7--6--5--4-------------7--6------------------------------------------
--0--0-0----------------0--0-0------------------------------------------------
  s  s s s  s  s  s     s  s s  s   s p    

chorus

7---7---5---5---7-7-7----5-5-5----3-3-0---------------------------------------

variation 1

-----------------------------------7/8/7------------------------------------------
-------7--6--5--4-------------7--6----------------7--6--5--4----------------------
0--0-0----------------0--0-0---------------0--0-0---------------0--0-0-7--6--5--4-
s  s s s  s  s  s     s  s s  s   s p      s  s s s  s  s  s    s  s s s  s  s  s 


bridge

----------------------------------
----------------------------------
--5--3--5--5-5--5--3--------------
----------------------5--5-5------

----------------------------------
----------------------------------
--5--3--5--5-5--5--3--------------
----------------------5--5-5------

----------------------------------
----------------------------------
--5--3--5--5-5--5--3--------------
----------------------5--5-5------

----------------------------------
-------------------3--7/19--------
--5--3--5--5-5--5-----------------
----------------------------------

variation 2
-----------------------------------------------------------7-7----5----
------7-7---5-4---------7-7----4---------7-7---5-4-------------0-------
-0--x-----0--------0--x-----0-------0--x-----0--------0--x-------------
    m			    m			  m 			   m

-----------------------------------------------------------7-7----5----
------7-7---5-4---------7-7----4---------7-7---5-4-------------0-------
-0--x-----0--------0--x-----0-------0--x-----0--------0--x-------------
    m			    m			  m 			   m


------7-7---5-4---------7-7----5---------------------------7-7---5-----
-0--x-----0--------0--x-----0------------7-7---5-4----0--x-----0-------
------------------------------------0--x-----0------------------------- 
    m			    m			  m 			   m

bridge 2
 
---7----5----7----5x----------------------------------------------------------

solo

-----------------------------------------------------------7-7----5----
------7-7---5-4---------7-7----4---------7-7---5-4-------------0-------
-0--x-----0--------0--x-----0-------0--x-----0--------0--x-------------
    m			    m			  m 			   m

-----------------------------------7/8/7------------------------------------------
-------7--6--5--4-------------7--6----------------7--6--5--4----------------------
0--0-0----------------0--0-0---------------0--0-0---------------0--0-0-7--6--5--4-
s  s s s  s  s  s     s  s s  s   s p      s  s s s  s  s  s    s  s s s  s  s  s 

-----------------------------------7/8/7------------------------------------------
-------7--6--5--4-------------7--6----------------7--6--5--4----------------------
0--0-0----------------0--0-0---------------0--0-0---------------------------------
s  s s s  s  s  s     s  s s  s   s p      s  s s s  s  s  s    


happy part

--7--5--11--7--5----7--5--11--12--11----7--5--11--7--5----2--0--6--2--0-------

--7--5--11--7--5----7--5--11--12--11----7--5--11--7--5----7--8--9-------------

end
-------------------------------------7/8/7------------------------------------
---------7--6--5--4-------------7--6----------------7--6--5--4----------------
--0--0-0----------------0--0-0---------------0--0-0---------------0x-0x--0x-0x
  s  s s s  s  s  s     s  s s  s   s p      s  s s s  s  s  s    sm sm  sm sm          

4 bars rest
intro *1
verse *2
chorus *1
variation1 *1
verse *1
chorus *1
variation1 *1
bridge1 *1
variation2 *1
bridge2 *1
happy part*1
rest 4 bars
verse *1
chorus *1
end *1

s-slap
p-pop
m-mute 
/-slide





Comments


Popular Ugly Kid Joe tabs & chords
Dialogue Bass Tabs
Cats In The Cradle 3 Chords
Would You Like To Be There Chords
Would You Like To Be There Unplugged Chords
Clover Tabs
Every Thing About You 1 Tabs
Everything About You 1 Tabs
Goddam Devil Tabs
Busy Bee Ukulele
Cats In The Cradle 2 Ukulele


Song lyrics



↑ Back to top | Tablatures and chords are parodies/interpretations of the original songs. You may use it for private study, scholarship, research or language learning purposes only
© 2014 AZChords.com Contact us | Privacy policy | DMCA | Add/correct tabs | Request tabs | Top 50 tabs