» » »

Ugly Casanova, Barnacles Tabs (ver.3)

Artists:  A B C D E F G H I J K L M N O P Q R S T U V W X Y Z # 

Barnacles Tabs (ver.3)

Ugly Casanova Tabs
 Rating:
4.3/5 (6 votes)
Barnacles lessons Tabs too difficult? Try these video lessons and learn fast
1
                

Tuning: EADgbe


| /  slide up
| \  slide down
| h  hammer-on
| p  pull-off
| ~  vibrato
| +  harmonic
| x  Mute note



e|-----------------------------------------5b----|
B|---8h7---8h7-----8h7------5b--5-7-5--5-7-------|
G|-------9-----9-7-----9-7-----------------------|
D|-----------------------------------------------|
A|-----------------------------------------------|
E|-----------------------------------------------|

do this until middle

e|-------------------------------|
B|--3p-----3-----------3p--------|
G|-----3p--0--4-----0-----3p-----|
D|---------2--0--7--2------------|
A|------------2--5--2------------|
E|-------------------------------|


e|-----------------------------|
B|-----------------------------|
G|-7-7-7-7-7-9-----------------|
D|-------------7-7-7-7-7-9-----|
A|-------------------------7---|
E|-------------------------9---|


bend it tremolo it
e|---------------|
B|---------------|
G|---7-----------|
D|---------------|
A|---------------|
E|---------------|

and the ending. you can do this a couple of ways

e|---------------------------------|
B|-10p-10p-10p-10p-12p-10p---------|
G|-------------------------11p-9p--|
D|---------------------------------|
A|---------------------------------|
E|---------------------------------|


i think its easier to plam mute this way becuase you dont have to change position

e|----------------------------------|
B|----------------------------------|
G|-14p-14p-14p-14p-16p-14p-11p-9p---|
D|----------------------------------|
A|----------------------------------|
E|----------------------------------|


this part is kinda improved but here are the notes. Put an open note here and there you'll 

get it.

e|-------------------------------------|
B|---7-5---5-7-5---5-7-5---5-7-5---0---|
G|-------7-------7-------7-------7-----|
D|-------------------------------------|
A|-------------------------------------|
E|-------------------------------------|



back to this


e|----------------------------------|
B|-10p-10p-10p-10p-12p-10p----------|
G|-------------------------11p-9p---|
D|----------------------------------|
A|----------------------------------|
E|----------------------------------|

or this

e|----------------------------------|
B|----------------------------------|
G|-14p-14p-14p-14p-16p-14p-11p-9p---|
D|----------------------------------|
A|----------------------------------|
E|----------------------------------|
            
Submit corrections

comments powered by Disqus
↑ Back to top | Ugly Casanova Tabs for Barnacles. Lyrics for acoustic guitar and electric guitar. 1 Tablatures and chords are parodies/interpretations of the original songs. You may use it for private study, scholarship, research or language learning purposes only