>
 >
Barnacles

Barnacles Guitar Tabs

Ugly Casanova - Barnacles chords, tabs, tablatures, lyrics

Guitar lessons | Add/correct | Request | Top 50 tabs Artists:  A B C D E F G H I J K L M N O P Q R S T U V W X Y Z 0-9

Barnacles Guitar Tabs – Ugly Casanova

CD, Sheet music, Poster

Do you like Barnacles? Share with your friends now
TabsTabs v2Tabs v3
There isnt a good tab of this song besides the one that's in the album tab.

Tuning: Standard

(Main Guitar)
e|----------------------------------------------------------------------|
B|----------------------------------------------------------------------|
G|-7--7--7--7--7--7--7/9------------------------------------------------|
D|-5--5--5--5--5--5--5----7--7--7--7--7--7--7/9--4--4--4--4-4--7-4--5-4-|
A|-7--7--7--7--7--7--7----5--5--5--5--5--5--5----5--5--5--5-5--5-5--5-5-|
E|------------------------7--7--7--7--7--7--7---------------------------|

e|--------------------------|
B|-------------3p0-0--------|
G|-------------------3p0-0--|
D|-2--2--2--2---------------|
A|-3--3--3--3---------------|
E|--------------------------|

(Second Guitar Intro)
e|--3p2-------3p2---------------3p2----------------------------------------|
B|------3---------3-----------------3--3--3/5----------5-7-5---7--/10------|
G|-------------------------------------------------------------------------|
D|-------------------------------------------------------------------------|
A|-------------------------------------------------------------------------|
E|-------------------------------------------------------------------------|

(Second Guitar Fill)
e|-5--5--5-5--7--5---------|
B|------------------7--5---|
G|-------------------------|
D|-------------------------|
A|-------------------------|
E|-------------------------|
  PM.....................

(First Guitar Outro)
e|--------------------------------------------------------------|
B|-8p7-------/7--5-----8p7--------------------8-----------------|
G|-----7\4-----------------7---7--7---7----------9--7--9-7--9-7-|
D|----------------------------------9---9-----------------------|
A|--------------------------------------------------------------|
E|--------------------------------------------------------------|


"I dont know me and you dont know you, so it feels so good to get it cause i knew you 
i knew myself"


Isaac Brock is a genious!





Comments


Popular Ugly Casanova tabs & chords
Digging Holes In The Water Chords
Heres To Now Chords
Baby's Clean Conscience Tabs
Barnacles 2 Tabs
Cat Faces 1 Tabs
Diamonds On The Face Of Evil Tabs
Hotcha Girls Tabs
Things I Don't Remember Tabs
Wave Goodbye Tabs
Heres To Now Ukulele


Song lyrics



↑ Back to top | Tablatures and chords are parodies/interpretations of the original songs. You may use it for private study, scholarship, research or language learning purposes only
© 2014 AZChords.com Contact us | Privacy policy | DMCA | Add/correct tabs | Request tabs | Top 50 tabs