» » »

You Could Meet Somebody Bass tabs (ver.1)

Artists:  A B C D E F G H I J K L M N O P Q R S T U V W X Y Z # 

You Could Meet Somebody Bass tabs (ver.1)

Ub40
Rating:
5/5 (1 vote)

Hard to play? Try these video lessons and learn fast.
                Artist - UB40
Title - You Could Meet Somebody
Album - Rat in the Kitchen
Bass Tab
  
             
main riff, repeat thru out  
G|---------------------------------|---------------------------------|
D|----------5---------------5------|----------5---------------5--7-5-|
A|--------57---7-5-33333--57---7-5-|--------57---7-5-33333--57-------|
E|-33333---------------------------|-33333---------------------------|

occasional variation
G|---------------------------------|---------------------------------|
D|----------5---------------5------|----------5--------------5555----|
A|--------57---7-5-33333--57---7-5-|--------57---7-5-33333-------5-7-|
E|-33333---------------------------|-33333---------------------------|
            
Hard to play? Try these video lessons and learn fast. | Correct




comments powered by Disqus
↑ Back to top | Tablatures and chords are parodies/interpretations of the original songs. You may use it for private study, scholarship, research or language learning purposes only