» » »

Wear You To The Ball Bass tabs (ver.1)

Artists:  A B C D E F G H I J K L M N O P Q R S T U V W X Y Z # 

Wear You To The Ball Bass tabs (ver.1)

Ub40
Rating:
4/5 (1 vote)

Hard to play? Try these video lessons and learn fast.
                Title-Wear You To The Ball
Artist-UB40
Album-Labour of love II

 Intro;
G|---------------------------------------------|
D|-----2-0h20-----2-0h20-----2-0h20-----2-0h20-|
A|-3-3--------3-3--------3-3--------3-3--------|
E|---------------------------------------------|

 Chorus;
G|--------------------------------------------------|
D|--------------------------------------------------|
A|-3-33--33333------7-----7-----5-----5-3-33-33333--|
E|-----3------3-5-55-55555--3-33-33333------3-----3-|

 Verse;
G|-------------------------------------------------|
D|-----5-----5-----------------------------5-------|
A|-3-33-33333------7-----7-----5-----5-3-33-33333--|
E|-------------5-55-55555--3-33-33333------------3-|


 Bridge;
G|----------------------------------------|
D|----------------------------------------|
A|-----3-----1h3-----3-----3-----3-----3--|
E|-1-11-11111----1-11-11111--1-11-11111---|

G|-------------------------------------------------------------|
D|-----------------------------------------5-----5-------------|
A|-----3-----3-----5-----5-----5-----5-3-33-33333------5-----5-|
E|-1-11-11111--3-33-33333--3-33-33333--------------3-33-33333--|
            
Hard to play? Try these video lessons and learn fast. | Correct




comments powered by Disqus
↑ Back to top | Tablatures and chords are parodies/interpretations of the original songs. You may use it for private study, scholarship, research or language learning purposes only