» » »

Sparkle Of My Eye Bass tabs (ver.1)

Artists:  A B C D E F G H I J K L M N O P Q R S T U V W X Y Z # 

Sparkle Of My Eye Bass tabs (ver.1)

Ub40
Rating:
5/5 (1 vote)

Hard to play? Try these video lessons and learn fast.
                Title-Sparkle of My Eye
Artist-UB40
Album-Cover Up

 repeat riff thro'out song;
G|-----|------------------------|
D|-7-9-|---7777---------9999--7-|
A|-----|-5-----77------7----99--|
E|-----|---------7--7-9---------|

G|--------------------------|
D|-----7777---------9999--7-|
A|----5----77------7----99--|
E|-5-7-------7--7-9---------|
            
Hard to play? Try these video lessons and learn fast. | Correct




comments powered by Disqus
↑ Back to top | Tablatures and chords are parodies/interpretations of the original songs. You may use it for private study, scholarship, research or language learning purposes only