» » »

Ub40, Smoke It Bass tabs (ver.1)

Artists:  A B C D E F G H I J K L M N O P Q R S T U V W X Y Z # 

Smoke It Bass tabs (ver.1)

Ub40 Tabs
Rating:
5/5 (1 vote)
Smoke It lessons Tabs too difficult? Try these video lessons and learn fast
                    Title - Smoke It (inst.)
    Artist - UB40
    Album - Present Arms in Dub

     intro;      riff 1
  G|---4h5--|---------------------------|
  D|--------|------5-5--7h8--5-5--7878--|
  A|--------|---------------------------|
  E|--------|---------------------------|

  G|----------------------|
  D|--5-5--7-8--5-5--7-8--|
  A|----------------------|
  E|----------------------|

       riff 2
  G|----------35353--------------------|
  D|----------------------------35353--|
  A|--3-3-3-----------3-3-3------------|
  E|-----------------------------------|

       riff 3
  G|-------14-15-------------------14-15------------|
  D|--5-5---------5-5--7-8----5-5---------5-5--7-8--|
  A|------------------------------------------------|
  E|------------------------------------------------|
          repeat riffs 1,2,3 thro'out with improv. to fade
            

comments powered by Disqus
↑ Back to top | Ub40 Bass for Smoke It. Lyrics for acoustic guitar and electric guitar. Tablatures and chords are parodies/interpretations of the original songs. You may use it for private study, scholarship, research or language learning purposes only