» » »

Ub40, Present Arms Bass tabs (ver.1)

Artists:  A B C D E F G H I J K L M N O P Q R S T U V W X Y Z # 

Present Arms Bass tabs (ver.1)

Ub40 Tabs
 Rating:
4.2/5 (5 votes)
Present Arms lessons Tabs too difficult? Try these video lessons and learn fast
                    Title - Present Arms
    Artist - UB40
    Album - Present Arms


  G|---------------------------------------------------------|
  D|---------------------------------------------------------|
  A|---8----8----8----------------8----8----8----------3-6---|
  E|-----6----6-----4--4--4-2-1-----6----6-----4--4--4-------|

  G|------------------------------------------------------------|
  D|--------------------------------------------10----10-10-----|
  A|---8----8----8----------------8----8----8-------8-------8---|
  E|-----6----6-----4---4-4-2-1-----6----6----------------------|

    repeat thro'out song
            
Submit corrections

comments powered by Disqus
↑ Back to top | Ub40 Bass for Present Arms. Lyrics for acoustic guitar and electric guitar. Tablatures and chords are parodies/interpretations of the original songs. You may use it for private study, scholarship, research or language learning purposes only