» » »

It's My Delight Bass tabs (ver.1)

Artists:  A B C D E F G H I J K L M N O P Q R S T U V W X Y Z # 

It's My Delight Bass tabs (ver.1)

Ub40
Rating:
0/5 (0 votes)

Hard to play? Try these video lessons and learn fast.
                Title;It's My Delight
Artist;UB40
Album;Labour of love III


verse 
G|-----------------4----4---------|-----------------4----4---------|
D|-4--4----4--4-------46---4--4---|-4--4----4--4-------46---4--4---|
A|-----64------64--------------64-|-----64------64--------------64-|
E|--------------------------------|--------------------------------|

chorus
G|-6---46--4----4-----------------|-6---46--4----4-----------------|
D|----6-------46---4--4----4--4---|----6-------46---4--4----4--4---|
A|---------------------64------64-|---------------------64------64-|
E|--------------------------------|--------------------------------|
            
Hard to play? Try these video lessons and learn fast. | Correct




comments powered by Disqus
↑ Back to top | Tablatures and chords are parodies/interpretations of the original songs. You may use it for private study, scholarship, research or language learning purposes only