» » »

Good Situation Bass tabs (ver.1)

Artists:  A B C D E F G H I J K L M N O P Q R S T U V W X Y Z # 

Good Situation Bass tabs (ver.1)

Ub40
Rating:
5/5 (1 vote)

Hard to play? Try these video lessons and learn fast.
                    Title - Good Situation
    Artist - UB40
    Album - Who You Fighting For

     verse riff
  G|--------------------------5-5---------|
  D|--------------------------------------|
  A|------R--3-3-5-5-3-3-----------5-3----|
  E|--1-------------------3---------------|


     chorus riff
  G|---------------------7-7-----|
  D|-------7-7----------7---7----|
  A|------7---7------5-5-----5-5-|
  E|---5-5-----5-5---------------|

  G|-------3-3---------------------|
  D|------3---3----------3-3-------|
  A|---1-1-----1-1------3---3------|
  E|-----------------1-1-----1-1-3-|

  G|---------------------7-7----------------------|
  D|-------7-7----------7---7---------------------|
  A|------7---7------5-5-----5-5-\1-1-1-----3-3-3-|
  E|---5-5-----5-5--------------------------------|
            
Hard to play? Try these video lessons and learn fast. | Correct




comments powered by Disqus
↑ Back to top | Tablatures and chords are parodies/interpretations of the original songs. You may use it for private study, scholarship, research or language learning purposes only