» » »

Ub40, End Of War Bass tabs (ver.1)

Artists:  A B C D E F G H I J K L M N O P Q R S T U V W X Y Z # 

End Of War Bass tabs (ver.1)

Ub40 Tabs
Rating:
5/5 (1 vote)
End Of War lessons Tabs too difficult? Try these video lessons and learn fast
                Title - End of War
Artist - UB40
Album - Twentfourseven



intro                    3/\3 = slide up (to octave) and back down
G|---------------------------------------------------------------|
D|---------------------------------------------------------------|
A|--5--5---5------------------------5--5---5---------------------|
E|-6--6--66--3-3---66665-5-3---3-5-6--6--66--3-3---6666-5-5-3/\3-|


verse X 4
G|------------------------------------------------------------------|
D|------------------------------------------------------------------|
A|--5--5---5------------------------5--5---5------------------------|
E|-6--6--66--3-3---66665-5-3---3-5-6--6--66--3-3---6666-5-5-3---3-5-|

chorus |  play this part X 3
G|-----|-------------------------------|
D|-----|---------------------------3---|
A|-----|-333----333----1111--1-1111--1-|
E|-333-|-----333----333----1-----------|


finish chorus with this
G|---------------------------7---|
D|---------------------7---7---7-|
A|-333----333----55555---5-------|
E|-----333----333----------------|


play verse, chorus
play out on verse
            

comments powered by Disqus
↑ Back to top | Ub40 Bass for End Of War. Lyrics for acoustic guitar and electric guitar. Tablatures and chords are parodies/interpretations of the original songs. You may use it for private study, scholarship, research or language learning purposes only