» » »

Dont Slow Down Bass tabs (ver.1)

Artists:  A B C D E F G H I J K L M N O P Q R S T U V W X Y Z # 

Dont Slow Down Bass tabs (ver.1)

Ub40
Rating:
0/5 (0 votes)

Hard to play? Try these video lessons and learn fast.
                    Title - Don't Slow Down
    Artist - UB40
    Album - Present Arms



  G|------------------------------------------|
  D|--33-3-------3-3-5-3----------------------|
  A|-------55-33--------33-3-------3-3h5-3h5--|
  E|-------------------------55-33------------|


  G|---------------------------------------|
  D|--33-3-------3-3-5-3-------------------|
  A|-------55-33--------33-3-------3-3-53--|
  E|-------------------------55-33---------|


  G|-------------------------------------|
  D|-------------------------------------|
  A|--11-1------11---1-33-3-------33-53--|
  E|-------3333----3--------55-55--------|


  G|------------------------------------------|
  D|------------------------------------------|
  A|--11-1-------11-0-1-2-33-3-------3-33353--|
  E|-------33-11---------------55-33----------|

       repeat thro'out with improv.
            
Hard to play? Try these video lessons and learn fast. | Correct




comments powered by Disqus
↑ Back to top | Tablatures and chords are parodies/interpretations of the original songs. You may use it for private study, scholarship, research or language learning purposes only