» » »

Bullet The Blue Sky Tabs (ver.4)

Artists:  A B C D E F G H I J K L M N O P Q R S T U V W X Y Z # 

Bullet The Blue Sky Tabs (ver.4)

U2
Rating:
0/5 (0 votes)

Hard to play? Try these video lessons and learn fast.
                (Live)
Bullet The Blue Sky (live)
Tune down 1/2 a step

INTRO:(distrotion alot of it)

big E--0--------- let ring

then
E------------------------------------|
B----7-7\------------------- repeat--| 4x
G----7-7\----------------------------|slide down the neck
D----7-7\----------------------------|
A----7-7\----------------------------|
E--0---------------------------------|

then

big E--0--- let ring

then VERSE:echo, and some wah, little distortion

E---------------------------------|
B---------------------------------|
G---------------------------------|
D---------------------------------|
A---------------7-----7----7--5h7-|
E-15\---0-------------------------|mute w/finger right away

this is for rest of the VERSE:

E-----------------------|
B-----------------------| repeat this a couple of times
G-----------------------|
D------x-x-x------------|
A----7-x-x-x--7---5h7---|
E--0---x-x-x------------|

CHORUS:

E-----------------------------|    I put those xxx close
B-----------------------------|    together to show he is
G--7-7-7----------------------|     actually muting with finger
D--7-7-7----------------------|   between notes. watch closely
A--7-7-7--5-xxx-5--5-5--------|h7p5h7 his hand is moving pretty
E-----------------------------|     quickly.  but listen he mutes
                             more in between certain notes


then VERSE

then CHORUS

then SOLO:
E-----3-3-3-3-3------------------|
B-----3-3-3-3-3------------------|
G-----0-0-0-0-0------------------|
D--------------------------------|
A-------------------------5-5h7--| repeat a couple of times
E--0----------------0/7----------|

then
E------------15---15---15---15---15-----------------------|
B-3/17-17(b)----17---17---17---17---17-17-15~~---14-15-17-|

E--------------------------------------------------------|
B-14h15p14\12--14/15(b)~~--------------------------------|

repeat that seqeuence 2x then

E------15-----------------------------------|
B-3/17-----17-15----------------------------|
G----------------16---14h16p14\12-----------|
D---------------------------------14-12-14--|
A-------------------------------------------|
E-------------------------------------------|

E---------------------15---15---15-15\------|
B------------12-14/17---17----17---17\------|
G------12-14--------------------------------|
D-7/14--------------------------------------|
A-------------------------------------------|
E-------------------------------------------|

E-/---15---------17---17---17---17--------|
B-/17---17-17/19---19---19---19-----------|
G-----------------------------------------|
D-----------------------------------------|
A-----------------------------------------|
E-----------------------------------------|

E------------12-----------------------------|
B-12-12-14(B)---14(b)----12--------12-------|
G----------------------------14-14-----12---|(b)
D-------------------------------------------|
A-------------------------------------------|
E-------------------------------------------|

E---------------------------------------------------------|
B---------------------------------------------------------|
G----------12----------------------12----12---------------|
D-14-12-14----14-12----------12-14----14----14------------|
A-------------------14-12-14------------------------------|
E---------------------------------------------------------|

E-----------------------------------------------------10-|
B----------------------------------9-9h11p9---12-12(b)---|
G---------------------7-7h9p7/-9h11----------------------|
D-----5-5h7p5-5/7-7h9------------------------------------|
A-5h7----------------------------------------------------|
E--------------------------------------------------------|

E---10---10-10-10-10--10-12\-----x----x--------|
B-12---12---12-12-12--12-12\-----15(b)15(b)----|
G----------------------x-x-------x----x--------|
D----------------------x-x-------x----x--------|
A----------------------------------------------|
E----------------------------------------------|

then hit open big e string

then with slide

b-7-7\  listen for timing
g-7-7\
d-7-7\
a-7-7\

then watch edge hit above the nut

then E-0-0--0-03(b)--3(b)--3(b)

then end with

B-12-12\
G-12-12\
D-12-12\
A-12-12\
            
Hard to play? Try these video lessons and learn fast. | Correct




comments powered by Disqus
↑ Back to top | Tablatures and chords are parodies/interpretations of the original songs. You may use it for private study, scholarship, research or language learning purposes only