» » »

U2, Bullet The Blue Sky Tabs (ver.1)

Artists:  A B C D E F G H I J K L M N O P Q R S T U V W X Y Z # 

Bullet The Blue Sky Tabs (ver.1)

U2 Tabs
Rating:
0/5 (0 votes)
Hard to play? Try these video lessons and learn fast.
                BULLET THE BLUE SKY  

Music by U2 - Lyrics by Bono and The Edge

(LIVE VERSION FROM POPMART TOUR - 1997)



Tune down your guitar 1/2 step.

1-----------------------
2-----------------------
3-----------------------
4-----------------------
5-x-x-------------------
6-x-x--0--0--0--0--0--0-

         (with slide)   
1--------7-7/0----7-7/0----7-7/0----7-7/0-----
2--------7-7/0----7-7/0----7-7/0----7-7/0-----
3--------7-7/0----7-7/0----7-7/0----7-7/0-----
4--------7-7/0----7-7/0----7-7/0----7-7/0-----
5---------------------------------------------
6--17/0---------0--------0--------0---------0-

1---------------------------------------------------------------------------------------
2---------------------------------------------------------------------------------------
3---------------------------------------------------------------------------------------
4---------------------------------------------------------------------------------------
5------------7--7h5-5h7---7h5-5h7---7h5-5h7---7h5-5h7---7h5-5h7---7h5-5h7---7h5-5h7---7-
6-0--15/-0--------------0---------0---------0---------0---------0---------0---------0---

In the howling wind comes a stinging rain
See it driving nails into souls on the tree of pain
See the face of fear running scared in the valley below
           
1----------------------
2---7-7-7--------------
3---7-7-7--------------
4---7-7-7-------------- x6
5---7-7-7--5-5-5-7-5-7-
6----------------------

Bullet the blue sky 
Bullet the blue sky 
Bullet the blue

1---------------------------------------------------------------------------------------
2---------------------------------------------------------------------------------------
3---------------------------------------------------------------------------------------
4---------------------------------------------------------------------------------------
5-----7/-----7--7h5-5h7---7h5-5h7---7h5-5h7---7h5-5h7---7h5-5h7---7h5-5h7---7h5-5h7---7-
6-0---------------------0---------0---------0---------0---------0---------0---------0---

In the locust wind comes a rattle and hum
Jacob wrestled the angel and the angel was overcome
Plant a demon seed, you raise a flower of fire
See them burning crosses, see the flames, higher and higher

1----------------------
2---7-7-7--------------
3---7-7-7--------------
4---7-7-7-------------- x6
5---7-7-7--5-5-5-7-5-7-
6----------------------

Bullet the blue sky 
Bullet the blue sky 
Bullet the blue

1-----------
2-----------
3-----------
4-----------
5-5-5-5-7---
6---------0-
 

								(switch on wah wah)
1---------3-3--3-3------------3-3-------------3-3-----------3-3-3-3-3-3-3-3-
2---------3-3--3-3------------3-3-------------3-3-----------3-3-3-3-3-3-3-3-
3---------0-0--0-0------------0-0-------------0-0-----------0-0-0-0-0-0-0-0-
4---------0-0--0-0------------0-0-------------0-0-----------0-0-0-0-0-0-0-0-
5---------------------5-5h7----------5-5h7----------5-5h7-------------------
6--15/0-------------7-------0------7-------0------7-------0-----------------

1---------15---15---15---15---15-------------------------------------
2-----15b---15b--15b--15b--15b--15br-15--14h15h17--14h15p14----14h15-
3--------------------------------------------------------------------
4-------------------------------------------------------------------- x2
5--------------------------------------------------------------------
6--------------------------------------------------------------------

1---------15-----------------------------------------------15---15-------17---17----
2-----15b---15b-15br------------------------------------15b--15b--15b-17b--17b--17b-
3--16----------------16h14--12--12-----------12-14-16-----------------16------------
4-----------------------------14---14-12-12-----------------------------------------
5-----------------------------------------------------------------------------------
6-----------------------------------------------------------------------------------

1---------------------------------------------------------------------------
2-----17h15h17-15-----------------------------------------------------------
3--16------------16h14h16-12------------12h11-------------------------------
4----------------------------14-12-14---------12----------12h14-------14----
5-----------------------------------------------14h12h14-----------------12-
6---------------------------------------------------------------------------
                     
1----------------------------10----10-----10----10----10-10-----
2--------------------8h10/12----12---12-12---12----12-------12/-
3----------------7h9--------------------------------------------
4---------5h7/9-------------------------------------------------
5----5h7--------------------------------------------------------
6--7------------------------------------------------------------

1-x-x-x-x-12-12/-------
2-x-x-x-x-12-12/-------
3-x-x-x-x--------------
4-x-x-x-x--------------
5-x-x-x-x--------------
6-x-x-x-x---------15/0-

So this guy comes up to me
His face red
Like a rose on a thorn blush
Like all the colours of a royal flush
And he's peeling off those dollar bills,
sleppend them down
And he's peeling off those dollar bills,
sleppend them down


1---7-7/--7-7/--7-7/2-
2---7-7/--7-7/--7-7/2-
3---7-7/--7-7/--7-7/2-
4---7-7/--7-7/--7-7/2-
5---------------------
6---------------------

One hundred
two hundred
three undred..

1---7-7/12-
2---7-7/12-
3---7-7/12-
4---7-7/12-
5----------
6----------

..Four

And I can see the fighter planes
And I can see the fighter planes
Through the alleys of a quiet city street
Across the mud huts as the children sleep
We turn the key and slowly unlock the door
Up the staircase to the first floor
A man breathes deep into saxophone
Through the walls we hear the city groan

Outside is America
Outside is America

1------------------------------
2------------------------------
3------------------------------
4------------------------------
5------------------------------
6-0-0-0---0-0-0--0-0-3-3-0-3-0-

And we run, the Irish run
yeah the Irish run
into the arms
into the arms...

1---12/-
2---12/-
3---12/-
4---12/-
5-------
6-------

...of America
            

comments powered by Disqus
↑ Back to top | U2 Tabs for Bullet The Blue Sky. Lyrics for acoustic guitar and electric guitar. Tablatures and chords are parodies/interpretations of the original songs. You may use it for private study, scholarship, research or language learning purposes only