» » »

Bullet The Blue Sky Tabs (ver.3)

Artists:  A B C D E F G H I J K L M N O P Q R S T U V W X Y Z # 

Bullet The Blue Sky Tabs (ver.3)

U2
Rating:
0/5 (0 votes)

Hard to play? Try these video lessons and learn fast.
                -------------------------------------------------------------------------------
                             SONG NAME - Band Name
-------------------------------------------------------------------------------

Tuning:EbAbDbGbBbeb

e|-12\0----------------------12\0--------------------------------------------|
B|-12\0-----------12\0-------12\0----------12\0------------------------------|
G|-12\0-----------12\0-------12\0----------12\0------------------------------|
D|-12\0-----------12\0-------12\0----------12\0------------------------------|
A|----------------12\0---------------------12\0------------------------------|
E|---------------------------------------------------------------------------|
  *Listen to the song for the timing
e|---------------------------------------------------------------------------|
B|---------------------------------------------------------------------------|
G|---------------------------------------------------------------------------|
D|---------------------------------------------------------------------------|
A|---------------------------------------------------------------------------|
E|0~-------------------------------------------------------------------------|
 *Use whammy and just bend the note as desired
e|---------------------------------------------------------------------------|
B|---------------------------------------------------------------------------|
G|---------------------------------------------------------------------------|
D|--12-12--------------------------------------------------------------------|
A|---------------------------------------------------------------------------|
E|-------------------------------------------10-10-10-12-10-12---------------|
Just before the "woah Bullet the Blue Sky" ^after that^ 6 times
e|-x-------------------------------------------------------------------------|
B|-x-------------------------------------------------------------------------|
G|-x-------------------------------------------------------------------------|
D|-x-------------------------------------------------------------------------|
A|-x-------------------------------------------------------------------------|
E|-x-------------------------------------------------------------------------|
    edge style scratching 2-3 times. after some weird very high harmonics, the notes 
to be a higher pitch than can be produced on the fretboard. try putting your slide on the 
after the last fret and just improvise.
e|---------------------------------------------------------------------------|
B|---------------------------------------------------------------------------|
G|---------------------------------------------------------------------------|
D|--12-12--------------------------------------------------------------------|
A|---------------------------------------------------------------------------|
E|-------------------------------------------10-10-10-12-10-12---------------|

e|------------------------------12/12--12/14---------------------------------|
B|-12-----12------12-----12-----12/14--12/14--14-----------------------------|
G|---12-----12------12-----12---12/14--12/14-----14--------------------------|
D|-----12-----12------12-----12-12/14--12/14--------14-----------------------|
A|---------------------------------------------------------------------------|
E|---------------------------------------------------------------------------|

-------------------------------12/14-----------------------------------------|
0\12-----12------12-----12-----12/14--14---14-----14----15---15----17\-------|
----12-----12------12-----12---12/14----14---14------14---15---15--17\-------|
------12-----12------12-----12-12/14-----------14----------------------------|
-----------------------------------------------------------------------------|
-----------------------------------------------------------------------------|

----14-----14-----14-----14----14-----14\0-----------------------------------|
-16^----16^---16^-----16^---16^---16-----------------------------------------|
-----------------------------------------------------------------------------|
-----------------------------------------------------------------------------|
-----------------------------------------------------------------------------|
-----------------------------------------------------------------------------|

e|--------12---------12\14\12\14\12\\-------------------------------------------|
B|--------12---------12\14\12\14\12\\-------------------------------------------|
G|--------12---------12\14-12\14\12\\-------------------------------------------|
D|-2-2----12---2-2---12\14\12\14\12\\-------------------------------------------|
A|-2-2---------2-2--------------------------------------------------------------|
E|-0-0---------0-0--------------------------------------------0-----------------|
                                      slide up past the last fret

| /  slide up
| \  slide down
| h  hammer-on
| p  pull-off
| ~  vibrato
| +  harmonic
| x  Mute note
===============================================================================
            
Hard to play? Try these video lessons and learn fast. | Correct




comments powered by Disqus
↑ Back to top | Tablatures and chords are parodies/interpretations of the original songs. You may use it for private study, scholarship, research or language learning purposes only