» » »

Tyler Ward, The Rescue Tabs (ver.3)

Artists:  A B C D E F G H I J K L M N O P Q R S T U V W X Y Z # 

The Rescue Tabs (ver.3)

Tyler Ward Tabs
 Rating:
4/5 (4 votes)
The Rescue lessons Tabs too difficult? Try these video lessons and learn fast
1
                -------------------------------------------------------------------------------
                             The Rescue - Tyler Ward
-------------------------------------------------------------------------------

Tuning:DADAAD

Intro: play 2x

D|-------0-------0-------0-------0-------5---4---0-------0-------0-|
A|----0------0-------0-------0-------0---------------0-------0-----|
A|------0------0-------0-------0-------0---------------0-------0---|
D|---------0-------0-----------------------0---0-----------0-------|
A|-----------------------------------------------------------------|
D|--9----------------------4-------5---------------5---------------|

Verse 1: Play 4x(Softly)...........................................Then:

D|-------0-------0-------0-------0-------0-------0------0-------0-------0-|
A|----0------0-------0-------0-------0-------0-------0------0-----------0-|
A|------0------0-------0-------0-------0-------0---0---0--0---0---------0-|
D|---------0-------0-----------------------0----------------------------0-|
A|----------------------------------------------------------------------0-|
D|--9----------------------4-------5------------------------------------0-|

Chorus : Play 2x (4 Strums w/ emphasis on beat 1)
    
    D U D U   D U D U   D U D U   D U D U   D U   D U D U   D U D U   D U D U
D|--0-0-0-0---0-0-0-0---0-0-0-0---0-0-0-0---4-4---5-5-5-5---5-5-5-5---5-5-5-5
A|--0-0-0-0---0-0-0-0---0-0-0-0---0-0-0-0---4-4---5-5-5-5---5-5-5-5---5-5-5-5
A|--0-0-0-0---0-0-0-0---0-0-0-0---0-0-0-0---4-4---5-5-5-5---5-5-5-5---5-5-5-5
D|--0-0-0-0---0-0-0-0---0-0-0-0---0-0-0-0---4-4---5-5-5-5---5-5-5-5---5-5-5-5
A|--0-0-0-0---0-0-0-0---0-0-0-0---0-0-0-0---4-4---5-5-5-5---5-5-5-5---5-5-5-5
D|--0-0-0-0---0-0-0-0---0-0-0-0---0-0-0-0---4-4---5-5-5-5---5-5-5-5---5-5-5-5

    D U D U   D U   D U D U   D U D U   D U D U  D U D U   D U   D U D U
D|--5-5-5-5---5-5---9-9-9-9---9-9-9-9---9-9-9-9--9-9-9-9---9-9---5-5-5-5
A|--5-5-5-5---5-5---9-9-9-9---9-9-9-9---9-9-9-9--9-9-9-9---9-9---5-5-5-5
A|--5-5-5-5---5-5---9-9-9-9---9-9-9-9---9-9-9-9--9-9-9-9---9-9---5-5-5-5
D|--5-5-5-5---5-5---9-9-9-9---9-9-9-9---9-9-9-9--9-9-9-9---9-9---5-5-5-5
A|--5-5-5-5---5-5---9-9-9-9---9-9-9-9---9-9-9-9--9-9-9-9---9-9---5-5-5-5
D|--5-5-5-5---5-5---9-9-9-9---9-9-9-9---9-9-9-9--9-9-9-9---9-9---5-5-5-5

    D U D U   D U D U   D U D U   D U 
D|--5-5-5-5---5-5-5-5---5-5-5-5---5-5-|
A|--5-5-5-5---5-5-5-5---5-5-5-5---5-5-|
A|--5-5-5-5---5-5-5-5---5-5-5-5---5-5-|
D|--5-5-5-5---5-5-5-5---5-5-5-5---5-5-|
A|--5-5-5-5---5-5-5-5---5-5-5-5---5-5-|
D|--5-5-5-5---5-5-5-5---5-5-5-5---5-5-|

Chorus : 2nd time

    D U D U   D U D U   D U D U   D U D U   D U   D U D U   D U D U   D U D U
D|--0-0-0-0---0-0-0-0---0-0-0-0---0-0-0-0---4-4---5-5-5-5---5-5-5-5---5-5-5-5
A|--0-0-0-0---0-0-0-0---0-0-0-0---0-0-0-0---4-4---5-5-5-5---5-5-5-5---5-5-5-5
A|--0-0-0-0---0-0-0-0---0-0-0-0---0-0-0-0---4-4---5-5-5-5---5-5-5-5---5-5-5-5
D|--0-0-0-0---0-0-0-0---0-0-0-0---0-0-0-0---4-4---5-5-5-5---5-5-5-5---5-5-5-5
A|--0-0-0-0---0-0-0-0---0-0-0-0---0-0-0-0---4-4---5-5-5-5---5-5-5-5---5-5-5-5
D|--0-0-0-0---0-0-0-0---0-0-0-0---0-0-0-0---4-4---5-5-5-5---5-5-5-5---5-5-5-5

    D U D U   D U   D U D U   D U D U   D U D U  D U D U   D U   D U D U
D|--5-5-5-5---5-5---9-9-9-9---9-9-9-9---9-9-9-9--9-9-9-9---9-9---5-5-5-5
A|--5-5-5-5---5-5---9-9-9-9---9-9-9-9---9-9-9-9--9-9-9-9---9-9---5-5-5-5
A|--5-5-5-5---5-5---9-9-9-9---9-9-9-9---9-9-9-9--9-9-9-9---9-9---5-5-5-5
D|--5-5-5-5---5-5---9-9-9-9---9-9-9-9---9-9-9-9--9-9-9-9---9-9---5-5-5-5
A|--5-5-5-5---5-5---9-9-9-9---9-9-9-9---9-9-9-9--9-9-9-9---9-9---5-5-5-5
D|--5-5-5-5---5-5---9-9-9-9---9-9-9-9---9-9-9-9--9-9-9-9---9-9---5-5-5-5

    D U D U   D U D U   D U D U   D U   D
D|--5-5-5-5---5-5-5-5---5-5-5-5---5-5---0-|
A|--5-5-5-5---5-5-5-5---5-5-5-5---5-5---0-|
A|--5-5-5-5---5-5-5-5---5-5-5-5---5-5---0-|
D|--5-5-5-5---5-5-5-5---5-5-5-5---5-5---0-|
A|--5-5-5-5---5-5-5-5---5-5-5-5---5-5---0-|
D|--5-5-5-5---5-5-5-5---5-5-5-5---5-5---0-|

Interlude : Play 2x

D|--------9-9-------4-------5-5-------5-4-|
A|----0---------0-------0---------0-------|
A|------0---------0-------0---------0-----|
D|----------------------------------------|
A|----------------------------------------|
D|--9---------4-------5---------5---------|

-Repeat for Verse 2 and Chorus 2.
-Still working on the Bridge.
-Outro should be similar to Chorus with slight variation.
-Let me know what you all think.
-Peace.
            
Submit corrections

comments powered by Disqus
↑ Back to top | Tyler Ward Tabs for The Rescue. Lyrics for acoustic guitar and electric guitar. 1 Tablatures and chords are parodies/interpretations of the original songs. You may use it for private study, scholarship, research or language learning purposes only