» » »

Tyler Ward, The Rescue Tabs (ver.2)

Artists:  A B C D E F G H I J K L M N O P Q R S T U V W X Y Z # 

The Rescue Tabs (ver.2)

Tyler Ward Tabs
 Rating:
4/5 (4 votes)
The Rescue lessons Tabs too difficult? Try these video lessons and learn fast
1
                I tried my best and hope it's alright, if you find any mistakes just tell me and I'll 
correct it)


tuning :
E -> D (down)
A -> A (stays)
D -> D (stays)
G -> A (up)
B -> A (down)
E -> D (down)

Verse: (Don't play exactly, let some other strings ring along)

D--9-------------4------5-----5--------------------------------------------|
A--------------------------------------------------------------------------|
D--------------------------------------------------------------------------|
A------0---0---------0-----0------0----------------------------------------|
A----0-------0-----0------0-----0------------------------------------------|
D--------0--------------------------5-4-0----------------------------------|


Pre-Chorus: (Just the chords, you can find the strumming pattern here 
D--9---5-------------------------------------------------------------------|
A--9---5-------------------------------------------------------------------|
D--9---5-------------------------------------------------------------------|
A--0---0-------------------------------------------------------------------|
A--0---0-------------------------------------------------------------------|
D--0---0-------------------------------------------------------------------|


Chorus: (Again just the chords)
D--0---4---5---9---7---5---------------------------------------------------|
A--0---4---5---9---7---5---------------------------------------------------|
D--0---4---5---9---7---5---------------------------------------------------|
A--0---0---0---0---0---0---------------------------------------------------|
A--0---0---0---0---0---0---------------------------------------------------|
D--0---0---0---0---0---0---------------------------------------------------|


(these are no chords, just play the bass notes and try to add your own pattern 
with those high strings)
D--0--0--0--0---0--0--0----------------------------------------------------|
A--0--0--0--0---0--0--0----------------------------------------------------|
D--0--0--0--0---0--0--0----------------------------------------------------|
A--------------------------------------------------------------------------|
A--9--7--10--7--9--7--5----------------------------------------------------|
D--------------------------------------------------------------------------|
            
Submit corrections

comments powered by Disqus
↑ Back to top | Tyler Ward Tabs for The Rescue. Lyrics for acoustic guitar and electric guitar. 1 Tablatures and chords are parodies/interpretations of the original songs. You may use it for private study, scholarship, research or language learning purposes only