» » »

Tsunami Bomb, Say It If You Mean It Tabs (ver.2)

Artists:  A B C D E F G H I J K L M N O P Q R S T U V W X Y Z # 

Say It If You Mean It Tabs (ver.2)

Tsunami Bomb Tabs
Rating:
0/5 (0 votes)
Say It If You Mean It lessons Tabs too difficult? Try these video lessons and learn fast
                Intro 
E |---------------------------------------| 
B |---------------------------------------| 
G |--------------------7-777777-----------| 
D |--9-9------777------7-777777-7-777777--| 
A |--9-9--999-----777--5-555555-7-777777--| 
E |--7-7------------------------5-555555--| 

E |------------------------------------------| 
B |------------------------------------------| 
G |--------------------7-777777-9-99999/7-0--| 
D |--9-9------777------7-777777-9-99999/7-0--| 
A |--9-9--999-----777--5-555555-7-77777/5-0--| 
E |--7-7-------------------------------------| 

E |---------------------------------------| 
B |---------------------------------------| 
G |--------------------7-777777-----------| 
D |--9-9------777------7-777777-7-777777--| 
A |--9-9--999-----777--5-555555-7-777777--| 
E |--7-7------------------------5-555555--| 

E |------------------------------------------| 
B |------------------------------------------| 
G |--------------------7-777777-9-99999/7-0--| 
D |--9-9------777------7-777777-9-99999/7-0--| 
A |--9-9--999-----777--5-555555-7-77777/5-0--| 
E |--7-7-------------------------------------| 



Verse 1 
E |------------------------------------------------------| 
B |------------------------------------------------------| 
G |-----------7-7777-------------------------------------| 
D |--9-999999-7-7777-77-55-4h5p4-7-777777-5-5555-7-7777--| 
A |--9-999999-5-5555-------------7-777777-5-5555-7-7777--| 
E |--7-777777--------------------5-555555-3-3333-5-5555--| 
PM---- PM-- PM---- PM-- PM-- 

E |------------------------------------------------------| 
B |------------------------------------------------------| 
G |-----------7-7777-------------------------------------| 
D |--9-999999-7-7777-77-55-4h5p4-7-777777-5-5555-7-7777--| 
A |--9-999999-5-5555-------------7-777777-5-5555-7-7777--| 
E |--7-777777--------------------5-555555-3-3333-5-5555--| 
PM---- PM-- PM---- 

Chorus 
E |--------------------------------------------| 
B |--------------------------------------------| 
G |-----------7-777777-------------------------| 
D |--9-999999-7-777777-7-777777-5-5555-7-7777--| 
A |--9-999999-5-555555-7-777777-5-5555-7-7777--| 
E |--7-777777----------5-555555-3-3333-5-5555--| 

E |--------------------------------------------| 
B |--------------------------------------------| 
G |-----------7-777777-------------------------| 
D |--9-999999-7-777777-7-777777-5-5555-7-7777--| 
A |--9-999999-5-555555-7-777777-5-5555-7-7777--| 
E |--7-777777----------5-555555-3-3333-5-5555--| 


Breakdown 
E |---------------------------------------| 
B |---------------------------------------| 
G |--------------------7-777777-----------| 
D |--9-9------777------7-777777-7-777777--| 
A |--9-9--999-----777--5-555555-7-777777--| 
E |--7-7------------------------5-555555--| 

E |------------------------------------------| 
B |------------------------------------------| 
G |--------------------7-777777-9-99999/7-0--| 
D |--9-9------777------7-777777-9-99999/7-0--| 
A |--9-9--999-----777--5-555555-7-77777/5-0--| 
E |--7-7-------------------------------------| 

Verse 2 
E |------------------------------------------------------| 
B |------------------------------------------------------| 
G |-----------7-7777-------------------------------------| 
D |--9-999999-7-7777-77-55-4h5p4-7-777777-5-5555-7-7777--| 
A |--9-999999-5-5555-------------7-777777-5-5555-7-7777--| 
E |--7-777777--------------------5-555555-3-3333-5-5555--| 
PM---- PM-- PM---- PM-- PM-- 

E |------------------------------------------------------| 
B |------------------------------------------------------| 
G |-----------7-7777-------------------------------------| 
D |--9-999999-7-7777-77-55-4h5p4-7-777777-5-5555-7-7777--| 
A |--9-999999-5-5555-------------7-777777-5-5555-7-7777--| 
E |--7-777777--------------------5-555555-3-3333-5-5555--| 
PM---- PM-- PM---- 

Chorus 
E |--------------------------------------------| 
B |--------------------------------------------| 
G |-----------7-777777-------------------------| 
D |--9-999999-7-777777-7-777777-5-5555-7-7777--| 
A |--9-999999-5-555555-7-777777-5-5555-7-7777--| 
E |--7-777777----------5-555555-3-3333-5-5555--| 

E |--------------------------------------------| 
B |--------------------------------------------| 
G |-----------7-777777-------------------------| 
D |--9-999999-7-777777-7-777777-5-5555-7-7777--| 
A |--9-999999-5-555555-7-777777-5-5555-7-7777--| 
E |--7-777777----------5-555555-3-3333-5-5555--| 


Bridge 
E |---------------------------------------------------------------------| 
B |---------------------------------------------------------------------| 
G |------------------7-7-xx-x7-7-xx-x-----------------------------------| 
D |--5-5-xx-x5-5-xx-x7-7-xx-x7-7-xx-x-7-7-xx-x7-7-xx-x9-9-xx-x7-7-xx-x--| 
A |--5-5-xx-x5-5-xx-x5-5-xx-x5-5-xx-x-7-7-xx-x7-7-xx-x9-9-xx-x7-7-xx-x--| 
E |--3-3-xx-x3-3-xx-x-----------------5-5-xx-x5-5-xx-x7-7-xx-x5-5-xx-x--| 

E |--------------------------------------------------------------------| 
B |--------------------------------------------------------------------| 
G |--------------------------------------------------------------------| 
D |--------------------------------------------------------------------| 
A |--9999999999999999999999999999777799999999999999999999999999997777--| 
E |--------------------------------------------------------------------| 

E |----------------------------------------| 
B |----------------------------------------| 
G |-----------77777777---------------7777--| 
D |--99999999-77777777-77777777-2222-7777--| 
A |--99999999-55555555-77777777-2222-5555--| 
E |--77777777----------55555555-0000-------| 
PM---------------------------------- 

E |----------------------------------------| 
B |----------------------------------------| 
G |-----------77777777---------------7777--| 
D |--99999999-77777777-77777777-2222-7777--| 
A |--99999999-55555555-77777777-2222-5555--| 
E |--77777777----------55555555-0000-------| 
PM---------------------------------- 

E |----------------------------------------| 
B |----------------------------------------| 
G |-----------77777777---------------7777--| 
D |--99999999-77777777-77777777-2222-7777--| 
A |--99999999-55555555-77777777-2222-5555--| 
E |--77777777----------55555555-0000-------| 
PM---------------------------------- 

E |----------------------------------------| 
B |----------------------------------------| 
G |-----------77777777---------------7--7--| 
D |--99999999-77777777-77777777-2--2-7--7--| 
A |--99999999-55555555-77777777-2--2-5--5--| 
E |--77777777----------55555555-0--0-------| 
PM------------------------ 

Chorus 
E |--------------------------------------------| 
B |--------------------------------------------| 
G |-----------7-777777-------------------------| 
D |--9-999999-7-777777-7-777777-5-5555-7-7777--| 
A |--9-999999-5-555555-7-777777-5-5555-7-7777--| 
E |--7-777777----------5-555555-3-3333-5-5555--| 

E |--------------------------------------------| 
B |--------------------------------------------| 
G |-----------7-777777-------------------------| 
D |--9-999999-7-777777-7-777777-5-5555-7-7777--| 
A |--9-999999-5-555555-7-777777-5-5555-7-7777--| 
E |--7-777777----------5-555555-3-3333-5-5555--| 

E |--------------------------------------------| 
B |--------------------------------------------| 
G |-----------7-777777-------------------------| 
D |--9-999999-7-777777-7-777777-5-5555-7-7777--| 
A |--9-999999-5-555555-7-777777-5-5555-7-7777--| 
E |--7-777777----------5-555555-3-3333-5-5555--| 

E |--------------------------------------------| 
B |--------------------------------------------| 
G |-----------7-777777-------------------------| 
D |--9-999999-7-777777-7-777777-5-5555-7-7777--| 
A |--9-999999-5-555555-7-777777-5-5555-7-7777--| 
E |--7-777777----------5-555555-3-3333-5-5555--| 

E |--------------------------------------------| 
B |--------------------------------------------| 
G |-----------7-777777-------------------------| 
D |--9-999999-7-777777-7-777777-5-5555-7-7777--| 
A |--9-999999-5-555555-7-777777-5-5555-7-7777--| 
E |--7-777777----------5-555555-3-3333-5-5555--| 

E |--------------------------------------------| 
B |--------------------------------------------| 
G |-----------7-777777-------------------------| 
D |--9-999999-7-777777-7-777777-5-5555-7-7777--| 
A |--9-999999-5-555555-7-777777-5-5555-7-7777--| 
E |--7-777777----------5-555555-3-3333-5-5555--| 


Outro 
E |--------------------| 
B |--------------------| 
G |--------------------| 
D |--5555555555555555--| 
A |--5555555555555555--| 
E |--3333333333333333--| 
PM---- - - 

E |------------------------------------| 
B |------------------------------------| 
G |----------7-7-xx-x------------------| 
D |--5-5-xx-x7-7-xx-x9-9-xx-x9-9-xx-x--| 
A |--5-5-xx-x5-5-xx-x9-9-xx-x9-9-xx-x--| 
E |--3-3-xx-x--------7-7-xx-x7-7-xx-x--| 

E |----------------------| 
B |----------------------| 
G |----------7-7-xx-x----| 
D |--5-5-xx-x7-7-xx-x9/--| 
A |--5-5-xx-x5-5-xx-x9/--| 
E |--3-3-xx-x--------7/--|
            
Submit corrections

comments powered by Disqus
↑ Back to top | Tsunami Bomb Tabs for Say It If You Mean It. Lyrics for acoustic guitar and electric guitar. Tablatures and chords are parodies/interpretations of the original songs. You may use it for private study, scholarship, research or language learning purposes only