» » »

Tsunami Bomb, Say It If You Mean It Bass tabs (ver.2)

Artists:  A B C D E F G H I J K L M N O P Q R S T U V W X Y Z # 

Say It If You Mean It Bass tabs (ver.2)

Tsunami Bomb Tabs
 Rating:
4/5 (4 votes)
Say It If You Mean It lessons Tabs too difficult? Try these video lessons and learn fast
                
Intro x2
G-----------------------------------------------------------------------------
D-----------------------------------------------------------------------------
A------guitar part-5-5-5-5-5-5-----------------guitar part-5-5-5-5-5/7-7-7-7-7
E---9-9------------------------5-5-5-5-5-5--9-9-------------------------------

Verse 1 play x2 
G----------------------------------------------
D----------------------------------------------
A-----------5--5555555-------------------------
E--9--99999------------5--5555555--3-333--5-555

chorus play X2
G-----------------------------------------------------------
D-----------------------------------------------------------
A--------------5--55555555----------------------------------
E--9--99999999-------------5--55555555----3-33333---5-55555-

intro   x1
verse 1 x2
chorus  x2

Bridge play x1

G-------------------------------------------------------------------
D-------------------------------------------------------------------
A------------------55-xx-x-55-xx-x----------------------------------
E--33-xx-x-33-xx-x-----------------55-xx-x-55-xx-x--77-xx-x--55-xx-x

(play chorus x2)play it longer. listen to the song to get the sound right -
I'm not sure about this part. ..sounds good to me..


Verse 2 (play this 4 times.) Note the four times u hit it the strings twice
listen to the song u get it .................. bottom.here              
G--------------------------------------------I-----------I
D--------------------------------------------I-----------I
A-------------555555555------------------5555I-----55----I
E---999999999------------555555555--0000-----I-00--------I

verse 1 x6
then...

G-------------
D-------------
A-------------
E-333333333333

ENDING 
G------------------------------------------------------------
D------------------------------------------------------------
A----------55-x-xx-------------------------------55-x-xx-----
E--33-xx-x----------77-xx-x--77-xx-x---33-xx-x-------------77

Have fun!! 
            
Submit corrections

comments powered by Disqus
↑ Back to top | Tsunami Bomb Bass for Say It If You Mean It. Lyrics for acoustic guitar and electric guitar. Tablatures and chords are parodies/interpretations of the original songs. You may use it for private study, scholarship, research or language learning purposes only