>
 >
Dawn On A Funeral Day 1

Dawn On A Funeral Day 1 Guitar Tabs

Tsunami Bomb - Dawn On A Funeral Day 1 chords, tabs, tablatures, lyrics

Guitar lessons | Add/correct | Request | Top 50 tabs Artists:  A B C D E F G H I J K L M N O P Q R S T U V W X Y Z 0-9

Dawn On A Funeral Day 1 Guitar Tabs – Tsunami Bomb

CD, Sheet music, Poster

Do you like Dawn On A Funeral Day 1? Share with your friends now
TabsTabs v2


Additional Info: Missing the second guitar in bridge and the ending.

Tuning: EADGBE 

INTRO
|-------------------------------|------------------------------|
|-------------------------------|------------------------------|
|-------------------------------|-------4-4-4-4-2-2-2-2--------|
|-5-0----5-0--2-2-5-5-2-4-4--x3-|-5-0---5-5-5-5-2-2-2-2--5-0---|
|-----3-------2-2-2-2-2-2-2-----|-----3-3-3-3-3-0-0-0-0------3-|
|-------------0-0-0-0-0-0-0-----|------------------------------|

VERSE
|------------------------------------------------------|
|------------------------------------------------------|
|------------5-5-5-5-5-------------5-5-5-5-5-5-5-------|
|-2-2-2-2-2--5-5-5-5-5--2-2-2-2-2--5-5-5-5-5-5-5-------|
|-2-2-2-2-2--3-3-3-3-3--2-2-2-2-2--3-3-3-3-3-3-3-------|
|-0-0-0-0-0-------------0-0-0-0-0----------------------|
    . . . .  . . . . .  . . . . .  . . . 

|-------------------------------------------|
|-------------------------------------------|
|-5-5-5-5-5-5-5--4-4-4-4-4-4-4----x2--------|
|-2-2-2-2-2-2-2--5-5-5-5-5-5-5--------------|
|-0-0-0-0-0-0-0--3-3-3-3-3-3-3--------------|
|-------------------------------------------|

CHORUS
|------------------------------------------------------|
|------------------------------------------------------|
|--------------------------2-2-5-2-2-5-2-2-5-2-2-5--x2-|
|-2-2-5-2-2-5-2-2-5-2-2-5--2-2-2-2-2-2-2-2-2-2-2-2-----|
|-2-2-2-2-2-2-2-2-2-2-2-2--0-0-0-0-0-0-0-0-0-0-0-0-----|
|-0-0-0-0-0-0-0-0-0-0-0-0------------------------------|

|--------------------------------------------------------|
|--------------------------------------------------------|
|-5-5-5-5-5-5--4-4-4-4-4-4--7-7-7-7-7-7--4-4-4-4-4-4-----|
|-5-5-5-5-5-5--5-5-5-5-5-5--5-5-5-5-5-5--5-5-5-5-5-5-----|
|-3-3-3-3-3-3--3-3-3-3-3-3--3-3-3-3-3-3--3-3-3-3-3-3-----|
|--------------------------------------------------------|

|----------------------------------------------------|
|----------------------------------------------------|
|-5-5-5-5-5-5--4-4-4-4-4-4--7-7-7-7-7-7--------------|
|-5-5-5-5-5-5--5-5-5-5-5-5--5-5-5-5-5-5--5-0----5-0--|
|-3-3-3-3-3-3--3-3-3-3-3-3--3-3-3-3-3-3------3-------|
|----------------------------------------------------|

VERSE 
|-------------------------------------------------------|
|-------------------------------------------------------|
|----5-------5-------5---------------5-5-5-5-5-5--2-----|
|-2--5---2---5---2---5--2-2-2-2-2-2--5-5-5-5-5-5--2-----|
|-2--3---2---3---2---3--2-2-2-2-2-2--3-3-3-3-3-3--0-----|
|-0------0-------0------0-0-0-0-0-0---------------------|
                        . . . . . .  . . . . . .

CHORUS 
|------------------------------------------------------|
|------------------------------------------------------|
|--------------------------2-2-5-2-2-5-2-2-5-2-2-5--x2-|
|-2-2-5-2-2-5-2-2-5-2-2-5--2-2-2-2-2-2-2-2-2-2-2-2-----|
|-2-2-2-2-2-2-2-2-2-2-2-2--0-0-0-0-0-0-0-0-0-0-0-0-----|
|-0-0-0-0-0-0-0-0-0-0-0-0------------------------------|

|--------------------------------------------------------|
|--------------------------------------------------------|
|-5-5-5-5-5-5--4-4-4-4-4-4--7-7-7-7-7-7--4-4-4-4-4-4-----|
|-5-5-5-5-5-5--5-5-5-5-5-5--5-5-5-5-5-5--5-5-5-5-5-5-----|
|-3-3-3-3-3-3--3-3-3-3-3-3--3-3-3-3-3-3--3-3-3-3-3-3-----|
|--------------------------------------------------------|

|----------------------------------------------------|
|----------------------------------------------------|
|-5-5-5-5-5-5--4-4-4-4-4-4--7-7-7-7-7-7--------------|
|-5-5-5-5-5-5--5-5-5-5-5-5--5-5-5-5-5-5--5-0----5-0--|
|-3-3-3-3-3-3--3-3-3-3-3-3--3-3-3-3-3-3------3-------|
|----------------------------------------------------|

BRIDGE
|---------------|--------------------------------------|
|---------------|--------------------------------------|
|-----5-5-5-5-5-|--------------5-5-5-5-5-5---x2--------|
|-2---5-5-5-5-5-|-2-2-2-2-2-2--5-5-5-5-5-5-------------|
|-2---3-3-3-3-3-|-2-2-2-2-2-2--3-3-3-3-3-3-------------|
|-0-------------|-0-0-0-0-0-0--------------------------|
      . . . . .       . . . .      . . . .

|-----------------------|
|-----------------------|
|--------------5-5-5-5--|
|-2-2-2-2-2-2--5-5-5-5--|
|-2-2-2-2-2-2--3-3-3-3--|
|-0-0-0-0-0-0-----------|
      . . . .  . .   

|-----------------------------------------------------------|
|-----------------------------------------------------------|
|-5-5-5-5-5-5-5--2-2-2-2-2-2-2--5-5-5-5-5-5--2-2-2-2-2-2----|
|-5-5-5-5-5-5-5--2-2-2-2-2-2-2--5-5-5-5-5-5--2-2-2-2-2-2----|
|-3-3-3-3-3-3-3--0-0-0-0-0-0-0--3-3-3-3-3-3--0-0-0-0-0-0----|
|-----------------------------------------------------------|

CHORUS 
|------------------------------------------------------|
|------------------------------------------------------|
|--------------------------2-2-5-2-2-5-2-2-5-2-2-5--x2-|
|-2-2-5-2-2-5-2-2-5-2-2-5--2-2-2-2-2-2-2-2-2-2-2-2-----|
|-2-2-2-2-2-2-2-2-2-2-2-2--0-0-0-0-0-0-0-0-0-0-0-0-----|
|-0-0-0-0-0-0-0-0-0-0-0-0------------------------------|

|-------------------------------------------------------------|
|-------------------------------------------------------------|
|-5-5-5-5-5-5--4-4-4-4-4-4--7-7-7-7-7-7--4-4-4-4-4-4-4-4-4----|
|-5-5-5-5-5-5--5-5-5-5-5-5--5-5-5-5-5-5--5-5-5-5-5-5-5-5-5-x2-|
|-3-3-3-3-3-3--3-3-3-3-3-3--3-3-3-3-3-3--3-3-3-3-3-3-3-3-3----|
|-------------------------------------------------------------|

|-----|
|-----|
|-----|
|--2--|
|--2--|
|--0--|





Comments


Popular Tsunami Bomb tabs & chords
20 Going On.. Bass Tabs
Planet Schmanet Janet Bass Tabs
20s Going On Tabs
5150 Tabs
El Diablo 1 Tabs
Obligation Tabs
Russian Roulette Tabs
Take The Reins Tabs
Take The Reins 2 Tabs
Top 40 Hit Tabs


Song lyrics



↑ Back to top | Tablatures and chords are parodies/interpretations of the original songs. You may use it for private study, scholarship, research or language learning purposes only
© 2014 AZChords.com Contact us | Privacy policy | DMCA | Add/correct tabs | Request tabs | Top 50 tabs