>
 >
Dawn On A Funeral Day

Dawn On A Funeral Day Guitar Tabs

Tsunami Bomb - Dawn On A Funeral Day chords, tabs, tablatures, lyrics

Guitar lessons | Add/correct | Request | Top 50 tabs Artists:  A B C D E F G H I J K L M N O P Q R S T U V W X Y Z 0-9

Dawn On A Funeral Day Guitar Tabs – Tsunami Bomb

CD, Sheet music, Poster

Do you like Dawn On A Funeral Day? Share with your friends now
TabsTabs v2
----------------------------------------------------------------------------

sorry if the tab is confusing....its all there,
 everything sounds accurate! please comment/rate
-|---------------------------------|---------------------------------------|
-|---------------------------------|---------------------------------------|
-|---------------------------------|--------------444444444444444--44444444|
-|-5---------4--0--2-2-5-5-2-2-4-4-|-5-------4-0--555555555555555--55555555|
-|----2--3---------2-2-2-2-2-2-2-2-|---2--3-------333333333333333--00000000|
-|-----------------0-0-0-0-0-0-0-0-|---------------------------------------|
           introx3
-|---------|----------------------------------------------------------------|
-|---------|----------------------------------------------------------------|
-|---------|----------------------------------------------------------------|
-|-5-------|--2222222222222222--5555555555555555--2222222222222222----------|
-|---2--3--|--2222222222222222--3333333333333333--2222222222222222----------|
-|---------|--0000000000000000--------------------0000000000000000----------|
               verse pm
----------------|-------------------0000000000000000----|-------------------|
----------------|-11111111111111111-1111111111111111----|-------------------|
-4444444444444--|-22222222222222222-0000000000000000----|-------------------|
-5555555555555--|-22222222222222222-2222222222222222----|-x2----------------|
-3333333333333--|-00000000000000000-3333333333333333----|-------------------|
----------------|---------------------------------------|-------------------|
                  no pm  prchorus
-|-0000000000000000-0000000000000000-|-x2-|--------------------------------|
-|-0000000000000000-1111111111111111-|----|--------------------------------|
-|-0000000000000000-2222222222222222-|----|-5555555544444444777777744444444|
-|-2222222222222222-2222222222222222-|----|-xxxxxxxxxxxxxxxxxxxxxxxxxxxxxxx|
-|-2222222222222222-0000000000000000-|----|-3333333333333333333333333333333|
-|-0000000000000000------------------|----|--------------------------------|
    chorus                                  last bit of chorus x2
-|----------------------------------------------------------------------|----|
-|----------------------------------------------------------------------|----|
-|--------------------------4-----------------4-----------------4-------|----|
-|-5-------4--0----2--------5---------2-------5------2----------5-------|----|
-|----2--3---------2--------3---------2-------3------2----------3-------|----|
-|-----------------0------------------0--------------0------------------|----|
   vers2
-|---------------------------------------------------------|----------------|
-|---------------------------------------------------------|----------------|
-|-------------------4444444444444444----------------------|----------------|
-|-2222222222222222--5555555555555555----------------------|----------------|
-|-2222222222222222--3333333333333333------0---------------|----------------|
-|-0000000000000000----------------------------------------|----------------|
       pre choru2
-|-----------------------------------------------|--------------------------|
-|-----------------------------------------------|--------------------------|
-|-----------------------------------------------|--------------------------|
-|--5----------4--0------2-------5555555555555555|22------------------------|
-|-----2--3--------------2-------3333333333333333|22--7777777777777777------|
-|-----------------------0-----------------------|00--0000000000000000------|
    then afterchorus 2                              guitar 1 repeat
---------------------|--------------------------------------|---------------|
---------------------|--8887778887788778887778887778877-----|---------------|
---------------------|--99999999999999999999999999999999----|---------------|
--55-55555555555555--|--------------------------------------|---------------|
--33-33333333333333--|--------------------------------------|---------------|
---------------------|--------------------------------------|---------------|
                      guitar 2 over the top (palm muted gradually let off
-|-------------------------------------|-----------------------------|------|
-|-------------------------------------|-888888877777777888778877----|------|
-|-5555555555555555---222222222222222--|-999999999999999999999999----|------|
-|-5555555555555555---222222222222222--|-----------------------------|------|
-|-3333333333333333---000000000000000--|-----------------------------|------|
-|-------------------------------------|-----------------------------|------|
  heavy bit guitar 1                      guitar 2
-|--------------------------------------------------------------------------|
-|--------------------------------------------------------------------------|
-|--------------------------------------4-------4-------4-------4-----------|
-|-----5-------5-------5-------5------5---5---5---5---5---5---5---5---------|
-|---2---2---2---2---2---2---2---2--3-------3-------3-------3---------------|
-|-0-------0-------0-------0------------------------------------------------|
 do chorus then    this toend!
-|-----------------------------------------------------------------|--------|
-|---------------------------------------3-----3------3------------|--------|
-|------------------------------4----------------------------------|--------|
-|-----5-------5-------5----------5----5---5-----5------5-----5----|--------|
-|---2---2---2---2---2---2---2-------3-------3-----3--------2------|--------|
-|-0-------0-------0-------0------------------------------0--------|--------|





Comments


Popular Tsunami Bomb tabs & chords
Cantare Del Morte Bass Tabs
Lemonade 2 Bass Tabs
Say It If You Mean It Bass Tabs
The Invasion From Within Bass Tabs
Dawn On A Funeral Day 1 Tabs
El Diablo 1 Tabs
I Bought You Tabs
Take The Reins Tabs
Take The Reins 2 Tabs
Take The Reins 4 Tabs


Song lyrics



↑ Back to top | Tablatures and chords are parodies/interpretations of the original songs. You may use it for private study, scholarship, research or language learning purposes only
© 2014 AZChords.com Contact us | Privacy policy | DMCA | Add/correct tabs | Request tabs | Top 50 tabs