» » »

Trust Company, Hover Tabs (ver.3)

Artists:  A B C D E F G H I J K L M N O P Q R S T U V W X Y Z # 

Hover Tabs (ver.3)

Trust Company Tabs
Rating:
0/5 (0 votes)
Hover lessons Tabs too difficult? Try these video lessons and learn fast
                6 string standard tuning E-A-D-G-B-e

intro

e------------------------------------               ------------
A------------------------------------               ------------
D----------12-------12----------12--- Repeat 3 then ----------12
G-10-11-11----10-11----10-11-11----10               -10-11-11---
B------------------------------------               ------------
E------------------------------------               ------------

chorus

e------------------------------------               -------------
A------------------------------------               -------------
D----------12-------12----------12--- Repeat 3 then ----------12-
G-10-11-11----10-11----10-11-11----10               -10-11-11----
B------------------------------------               -------------
E------------------------------------               -------------

Verse

e------------------------
A------------------------
D------------------------
G--4-----(7)----6----(7)-  repeat 2 or 3
B--4-----(7)----6----(7)-
E--4-----(5)----6----(5)-

verse part 2

e----------------------------------------
A----------------------------------------
D----------------------------------------
G--6-4-6-6---6-6-6-6---6-6-6-6---6-6-6-6-
B--4-4-4-4---4-4-4-4---4-4-4-4---6-6-6-6-
E--4-4-4-4---4-4-4-4---4-4-4-4---6-6-6-6-

e----------------------------------
A----------------------------------
D----------------------------------
G--6-6-6-6---6-6-6-6---6-6-6-6---6-
B--4-4-4-4---4-4-4-4---4-4-4-4---6-
E--4-4-4-4---4-4-4-4---4-4-4-4---6-

Bridge 

e-----------------
A-----------------
D-----------7-7-7-   repeat 2
G--4-4--4-4-x-x-x-
B--4-4--4-4-5-5-5-
E--4-4--4-4-------

Bridge part 2

e-----------------------------------------------------------------------------
A-----------------------------------------------------------------------------
D--------------------------------------------12-------12----------12-------12- then the chorus
G--4-4-4-4-6-6-6-6-4-4-4-4-6-6-6-6--10-11-11----10-11----10-11-11----10-11----
B--4-4-4-4-6-6-6-6-4-4-4-4-6-6-6-6--------------------------------------------
E--4-4-4-4-6-6-6-6-4-4-4-4-6-6-6-6--------------------------------------------

Then the song is over i hope this is right if it isn't the tell me thanks...
            

comments powered by Disqus
↑ Back to top | Trust Company Tabs for Hover. Lyrics for acoustic guitar and electric guitar. Tablatures and chords are parodies/interpretations of the original songs. You may use it for private study, scholarship, research or language learning purposes only