» » »

Trust Company, Hover Tabs (ver.1)

Artists:  A B C D E F G H I J K L M N O P Q R S T U V W X Y Z # 

Hover Tabs (ver.1)

Trust Company Tabs
 Rating:
4/5 (4 votes)
Hover lessons Tabs too difficult? Try these video lessons and learn fast
1
                	
	This is going to be my third Trust Company tab on this site and I hope you all like it... thank all you guys for the encouragement and asking me to write more tabs. it's been almost four months since i wrote my last tabs and I am a much better guitar player now.. so hopefully my tabs will be even better.. one last thing about lots of people putting down my tuning.. i found it awhile ago and it's the tuning that limp bizkit uses. Thank you all the guys who e mailed me and told me to do it my way. keep the letters comin.And as usual Trust Co. has 2 guitars so i will tab both parts.. thanx 

brackets - ( )- can be used as alternate
mute - x

Intro/Chorus Guitar 1
C# ------------7---------------7------------------------7------------
G# ----4--5------------4--5----------4-------5----------------------
E   --------------------------------------------------------------------
B   --------------------------------------------------------------------
F# ---------------------------------------------------------------------
C# --------------------------------------------------------------------

Intro/Chorus Guitar 2
C# ---------------------------------------------------------------------
G# ---------------------------------------------------------------------
E   -----6-6-----9-9----------------------------------------------------
B   -----6-6-----x-x--(2)-(2)---7-7-7-7-7-7-7-7-----------------------
F# -----4-4-----7-7--(2)-(2)---7-7-7-7-7-7-7-7-----------------------
C# -------------------(0)-(0)---5-5-5-5-5-5-5-5-----------------------

Prechorus " I hover.. to see you .. again.."
C# ----------------------------------------------------------------------
G# ----------------------------------------------------------------------
E   -----------------------------------------------------------------------
B   ---6-6-6-6----0-0-0-0-----------------------------------------------
F# ---6-6-6-6----0-0-0-0-----------------------------------------------
C# ---4-4-4-4----2-2-2-2-----------------------------------------------

"Can't think straight.. " - this is in short bursts  "keeps me stuggling.." - hold C#
C# -----------------------------------------------------------------------
G# -----------------------------------------------------------------------
E   ------------------------------------------------------------------------
B   -----6666-6666--0000-0000-------------0->>>>>>>>>>>>>>>>--
F# -----6666-6666--0000-0000-------------0->>>>>>>>>>>>>>>>--
C# -----4444-4444--2222-2222-------------2->>>>>>>>>>>>>>>>--


Intro/Chorus Guitar 1
C# ------------7---------------7------------------------7----------------
G# ----4--5------------4--5----------4-------5--------------------------
E   ------------------------------------------------------------------------
B   ------------------------------------------------------------------------
F# ------------------------------------------------------------------------
C# ------------------------------------------------------------------------

Intro/Chorus Guitar 2	"You take me down.. further inside of me.."
C# ------------------------------------------------------------------------
G# ------------------------------------------------------------------------
E   -----6-6-----9-9-------------------------------------------------------
B   -----6-6-----x-x--(2)-(2)---7-7-7-7-7-7-7-7-------------------------
F# -----4-4-----7-7--(2)-(2)---7-7-7-7-7-7-7-7-------------------------
C# -------------------(0)-(0)---5-5-5-5-5-5-5-5-------------------------


Prechorus " I hover.. to see you .. again.."
C# ------------------------------------------------------------------------
G# ------------------------------------------------------------------------
E   ------------------------------------------------------------------------
B   ---6-6-6-6----0-0-0-0------------------------------------------------
F# ---6-6-6-6----0-0-0-0------------------------------------------------
C# ---4-4-4-4----2-2-2-2------------------------------------------------

Guitar 2 - it's hard to hear but somewhere in the prechorus
C# ------------7---------------7------------------------7----------------
G# ----4--5------------4--5----------4-------5--------------------------
E   -----------------------------------------------------------------------
B   -----------------------------------------------------------------------
F# -----------------------------------------------------------------------
C# -----------------------------------------------------------------------
	
Can't think straight.. " - this is in short bursts  "keeps me stuggling.." - hold C#
C# -----------------------------------------------------------------------
G# -----------------------------------------------------------------------
E   -----------------------------------------------------------------------
B   -----6666-6666--0000-0000-------------0->>>>>>>>>>>>>>>>--
F# -----6666-6666--0000-0000-------------0->>>>>>>>>>>>>>>>--
C# -----4444-4444--2222-2222-------------2->>>>>>>>>>>>>>>>--

Intro/Chorus Guitar 1
C# ------------7---------------7------------------------7-----------------
G# ----4--5------------4--5----------4-------5--------------------------
E   ------------------------------------------------------------------------
B   ------------------------------------------------------------------------
F# ------------------------------------------------------------------------
C# ------------------------------------------------------------------------

Intro/Chorus Guitar 2	"You take me down.. further inside of me.."
C# ------------------------------------------------------------------------
G# -----------------------------------------------------------------------
E   -----6-6-----9-9-------------------------------------------------------
B   -----6-6-----x-x--(2)-(2)---7-7-7-7-7-7-7-7-------------------------
F# -----4-4-----7-7--(2)-(2)---7-7-7-7-7-7-7-7-------------------------
C# -------------------(0)-(0)---5-5-5-5-5-5-5-5--------------------------


 Bridge- both guitars 	i hover.. i'm watching you descend.."
C# -------------------------------------------------------------------------
G# -------------------------------------------------------------------------
E   ------- 999-----999------999----999-------------------------------
B   ----66--xxx--66-xxx--66--xxx-66-xxx-------------------------------
F# -----66--777--66-777--66--777-66-777------------------------------
C# -----44-------44------44------44-----------------------------------
	
"i'm hovering instead..."				Hold C#
C# --------------------------------------------------------------------------
G# --------------------------------------------------------------------------
E   ---------------------------------------------------------------------------
B   ----6666--22---6666--22--6666--22--6666--22--2>>>>>>-----------
F# ----6666--22---6666--22--6666--22--6666--22--2>>>>>>-----------
C# ----4444--00---4444--00--4444--00--4444--00--0>>>>>>----------


Intro/Chorus Guitar 1
C# ------------7---------------7------------------------7------------------
G# ----4--5------------4--5----------4-------5----------------------------
E   -------------------------------------------------------------------------
B   -------------------------------------------------------------------------
F# -------------------------------------------------------------------------
C# ------------------------------------------------------------------------


Intro/Chorus Guitar 2	"You take me down.. further inside of me.."
C# ------------------------------------------------------------------------
G# ------------------------------------------------------------------------
E   -----6-6-----9-9------------------------------------------------------
B   -----6-6-----x-x--(2)-(2)---7-7-7-7-7-7-7-7-------------------------
F# -----4-4-----7-7--(2)-(2)---7-7-7-7-7-7-7-7-------------------------
C# -------------------(0)-(0)---5-5-5-5-5-5-5-5-------------------------

Outro - Guitar 1
C# ------------7---------------7------------------------7-----------------
G# ----4--5------------4--5----------4-------5---------------------------
E   ------------------------------------------------------------------------
B   -----------------------------------------------------------------------
F# ------------------------------------------------------------------------
C# -----------------------------------------------------------------------

Outro - Guitar 2   "i hover..... i hover... again.. "
C# -----------------------------------------------------------------------
G# ----------------------------------------------------------------------
E   -----6-6-----9-9------------------------------------------------------
B   -----6-6-----x-x--(2)-(2)---7-7-7-7-7-7-7-7-------------------------
F# -----4-4-----7-7--(2)-(2)---7-7-7-7-7-7-7-7------------------------
C# -------------------(0)-(0)---5-5-5-5-5-5-5-5------------------------
            
Submit corrections

comments powered by Disqus
↑ Back to top | Trust Company Tabs for Hover. Lyrics for acoustic guitar and electric guitar. 1 Tablatures and chords are parodies/interpretations of the original songs. You may use it for private study, scholarship, research or language learning purposes only