» » »

Trust Company, Deeper Into You Bass tabs (ver.1)

Artists:  A B C D E F G H I J K L M N O P Q R S T U V W X Y Z # 

Deeper Into You Bass tabs (ver.1)

Trust Company Tabs
 Rating:
4/5 (4 votes)
Deeper Into You lessons Tabs too difficult? Try these video lessons and learn fast
                Trust Co. / Deeper Into You
The Lonely Position Of Neutral
Tuning – C#, F#, B, E

Intro x2 play With Guitar
E ----------------------------------
B --0-------------------------------
F#---------------0------------------
C#--------2-------------0-----------

Intro 2 / Chorus
E -------------------------------------------------------------------
B -------------------------------------------------------------------
F#-5-5-5-5-5-5-5-5---------------------------------------------------
C#-----------------2-2-2-2-2-2-2-2--5-5-5-5-5-5-5-5--0-0-0-0-0-0-0-0-

Pre-Verse 
E --------------------- 
B ---------------------
F#------5--------------
C#--0-2---0-0-0-2-2----

Verse 
E -----------------------------------------------
B -----------------------------------------------
F#------------------5-5-5-5-5-5-5-5-5------------
C#--2-2---2-2---2-2--------------------0---2-2---
            
Submit corrections

comments powered by Disqus
↑ Back to top | Trust Company Bass for Deeper Into You. Lyrics for acoustic guitar and electric guitar. Tablatures and chords are parodies/interpretations of the original songs. You may use it for private study, scholarship, research or language learning purposes only