» » »

Deeper Into You Tabs (ver.3)

Artists:  A B C D E F G H I J K L M N O P Q R S T U V W X Y Z # 

Deeper Into You Tabs (ver.3)

Trust Company
Rating:
0/5 (0 votes)

Hard to play? Try these video lessons and learn fast.
                                            Trust Company - Deeper Into You
Db, Ab, Db, Gb, Bb, Eb (or C#, G#, C#, F#, A#, D#)

Intro
------4-5------4-5-----4-5------4-5-----------------------------
---3------------------------------------------------------------
------------2--------5-------0----------------------------------

------4-5------4-5------4-5-----4~~~~---------------------------
---3------------------------------------------------------------
------------2--------5------------------------------------------

Chorus
---3-3-3-3-3-3--------------------------------------------------
-----------------2-2-2-2-2-2---5-5-5-5-5-5---0-0-0-0-0-0--------

PreVerse
--------3-------------------------------------------------------
---0h2-----0-0--0-2-----x-x-x-x---------------------------------

Verse
------------------------------3-3-3-3---------------------------
---2--2-----2--2-----2--2---------------0-0-0--2-2--------------

Chorus

Verse

Chorus

Bridge
--------3-------------------------------------------------------
---0h2-----0-0--0-2-----x-x-x-x---------------------------------

---2-2---2--2-2---2--2-2-2--2----------------------------------

Chorus

Outro
Outro
---2-2---2--2-2-2----------2-2---2--2-2-2-----------------------
            
Hard to play? Try these video lessons and learn fast. | Correct




comments powered by Disqus
↑ Back to top | Tablatures and chords are parodies/interpretations of the original songs. You may use it for private study, scholarship, research or language learning purposes only