» » »

Trust Company, Deeper Into You Tabs (ver.2)

Artists:  A B C D E F G H I J K L M N O P Q R S T U V W X Y Z # 

Deeper Into You Tabs (ver.2)

Trust Company Tabs
Rating:
0/5 (0 votes)
Deeper Into You lessons Tabs too difficult? Try these video lessons and learn fast
                This tab sounds perfect. A very cool song.

Deeper Into You
Tuning- Drop D all strings ½ step down.
(b)=bend
. = hold your finger over the note lightly, like a harmonic
             Intro
----------4-----5----------4-----5-----------4-----5----------4-----5----------------------
-----3----------------------------------------------------------------------------------------
-----------------------2-----------------5----------------0----------------------------------

-------------------------------------------------------------11(b)---------------------------                 ---------4-----5----------4-----5-----------4-----5-----------------------------------------                 ----3-----------------------------------------------------------------------------------------                 ---------------------2-----------------5------------------------------------------------------

            Chorus (This part 3x)
-----14-----14-----14-----14-----15-----15-----15-----15-----17|

Chorus (2nd part) do this part once,
 after u have done the top part  and 
then repeat both of them again in the 
same way                                               end with this
-----19---------------------------19-------|-------------
------------18-----17-----18-----------18|-----13(b)-
---------------------------------------------|-------------
---------------------------------------------|-------------
---------------------------------------------|-------------
---------------------------------------------|-------------

   Verse one
-----0-----2---------- 2-----0-----2-----2-----2.-----2.-----2.-----2.
-----0-----2-----3----2-----0-----2-----2-----2.-----2.-----2.-----2.
-----0-----2---------- 2-----0-----2-----2-----2.-----2.-----2.-----2.

-----0-----2----------2-----0-----2-----2-----3.-----3.-----3.-----3.
-----0-----2-----3---2-----0-----2-----2-----3.-----3.-----3.-----3.
-----0-----2----------2-----0-----2-----2-----3.-----3.-----3.-----3.

-----0-----2---------2-----0-----2-----2-----2.-----2.-----2.-----2.
-----0-----2-----3---2-----0-----2-----2-----2.-----2.-----2.-----2.
-----0-----2---------2-----0-----2-----2-----2.-----2.-----2.-----2.

-----0-----2-----------2-----0-----2-----2-----2.-----2.-----2.-----2.
-----0-----2-----3-----2-----0-----2-----2-----2.-----2.-----2.-----2.
-----0-----2-----------2-----0-----2-----2-----2.-----2.-----2.-----2.

 Verse two (3x)                            
------------------|--------------------------------------------------------------
------------------|--------------------------------------------------------------
------------------|--------------------------------------------------------------
-----2-----2-----|-----10-----10-----10-----10-----10-----10-----10-----0
-----2-----2-----|-----10-----10-----10-----10-----10-----10-----10-----0
-----2-----2-----|-----10-----10-----10-----10-----10-----10-----10-----0

 Verse 3
-----2-----2-----4-----4-----5-----5-----5-----5-----4-----4-----5-----5
-----2-----2-----------------------------------------------------------------
-----2-----2-----------------------------------------------------------------
                         |____|____|____|____|____|____|____|____|____|                                      ------------------------------------------------------------------------------
-----2-----2-----4-----4-----5-----5-----5-----5-----4-----4-----0-----0
-----2-----2-----------------------------------------------------------------
-----2-----2-----------------------------------------------------------------
                         |____|____|____|____|____|____|____|____|____|     
                          p.m


-----2-----2-----4-----4-----5-----5-----5-----5-----4-----4-----5-----5
-----2-----2-----------------------------------------------------------------
-----2-----2-----------------------------------------------------------------
                         |____|____|____|____|____|____|____|____|____|
                         p.m

Pre-chorus
-----2-----2-----2-----2-----2-----2-----2-----2-----2-----2
-----2-----2-----2-----2-----2-----2-----2-----2-----2-----2
-----2-----2-----2-----2-----2-----2-----2-----2-----2-----2
        |____|____|____|____|____|
         p.m

         Chorus (3x, just this section)                 do this section once after the first part, 
                                                                         And then repeat the process 1 more x
---14---14---14---14---15---15---15---15---17|-----------------------------------|
------------------------------------------------------|---19--------------------19------|
------------------------------------------------------|--------18---17---18--------18-|
------------------------------------------------------|-----------------------------------|
------------------------------------------------------|-----------------------------------|
------------------------------------------------------|-----------------------------------|
                      
--------|
--13(b)|
--------|
--------|
--------|
--------|
 Verse two (3x)                            
------------------|--------------------------------------------------------------|
------------------|--------------------------------------------------------------|
------------------|--------------------------------------------------------------|
-----2-----2-----|-----10-----10-----10-----10-----10-----10-----10-----0|
-----2-----2-----|-----10-----10-----10-----10-----10-----10-----10-----0|
-----2-----2-----|-----10-----10-----10-----10-----10-----10-----10-----0|

 Verse 3
-----2-----2-----4-----4-----5-----5-----5-----5-----4-----4-----5-----5
-----2-----2-----------------------------------------------------------------
-----2-----2-----------------------------------------------------------------
                         |____|____|____|____|____|____|____|____|____|                                      ------------------------------------------------------------------------------
-----2-----2-----4-----4-----5-----5-----5-----5-----4-----4-----0-----0
-----2-----2-----------------------------------------------------------------
-----2-----2-----------------------------------------------------------------
                         |____|____|____|____|____|____|____|____|____|     
                          p.m


-----2-----2-----4-----4-----5-----5-----5-----5-----4-----4-----5-----5
-----2-----2-----------------------------------------------------------------
-----2-----2-----------------------------------------------------------------
                         |____|____|____|____|____|____|____|____|____|
                         p.m 
Pre-chorus
-----2-----2-----2-----2-----2-----2-----2-----2-----2-----2
-----2-----2-----2-----2-----2-----2-----2-----2-----2-----2
-----2-----2-----2-----2-----2-----2-----2-----2-----2-----2
        |____|____|____|____|____|
         p.m


       Chorus (3x, just this section)                 do this section once after the first part, 
                                                                         And then repeat the process 1 more x
---14---14---14---14---15---15---15---15---17|-----------------------------------|
------------------------------------------------------|---19--------------------19------|
------------------------------------------------------|--------18---17---18--------18-|
------------------------------------------------------|-----------------------------------|
------------------------------------------------------|-----------------------------------|
------------------------------------------------------|-----------------------------------|

end with this
--------|
--13(b)|
--------|
--------|
--------|
--------|



   Verse one
-----0-----2---------- 2-----0-----2-----2-----2.-----2.-----2.-----2.
-----0-----2-----3----2-----0-----2-----2-----2.-----2.-----2.-----2.
-----0-----2---------- 2-----0-----2-----2-----2.-----2.-----2.-----2.

-----0-----2----------2-----0-----2-----2-----3.-----3.-----3.-----3.
-----0-----2-----3---2-----0-----2-----2-----3.-----3.-----3.-----3.
-----0-----2----------2-----0-----2-----2-----3.-----3.-----3.-----3.

-----0-----2---------2-----0-----2-----2-----2.-----2.-----2.-----2.
-----0-----2-----3---2-----0-----2-----2-----2.-----2.-----2.-----2.
-----0-----2---------2-----0-----2-----2-----2.-----2.-----2.-----2.

-----0-----2-----------2-----0-----2-----2-----2.-----2.-----2.-----2.
-----0-----2-----3-----2-----0-----2-----2-----2.-----2.-----2.-----2.
-----0-----2-----------2-----0-----2-----2-----2.-----2.-----2.-----2.
             (2x)                                 (2x)
-------------------------------|-----------------|--14—14—15—15--17
-------------------------------|-----------------|----------------------------
-------------------------------|-----------------|----------------------------
--2--2----2--2---2--2-------|--2—2—2—2|----------------------------
--2--2----2--2---2--2-------|--2---2---2—2|----------------------------
--2--2----2--2---2--2-------|--2---2---2—2|----------------------------




       Chorus (3x, just this section)                 do this section once after the first part, 
                                                                     And then repeat the process 4 more x’s                                
---14---14---14---14---15---15---15---15---17|-----------------------------------|---------------
------------------------------------------------------|---19--------------------19------|---------13(b)
------------------------------------------------------|--------18---17---18--------18-|---------------
------------------------------------------------------|-----------------------------------|---------------
------------------------------------------------------|-----------------------------------|---------------
------------------------------------------------------|-----------------------------------|---------------


(3x)
-------------------------------|-----------------|
-------------------------------|-----------------|
-------------------------------|-----------------|
--2--2----2--2---2--2-------|--2—2—2—2|
--2--2----2--2---2--2-------|--2---2---2—2|
--2--2----2--2---2--2-------|--2---2---2—2|


I wrote it out a little confusing, sorry about that. This is an awesome cd and worth checking out.
            
Submit corrections

comments powered by Disqus
↑ Back to top | Trust Company Tabs for Deeper Into You. Lyrics for acoustic guitar and electric guitar. Tablatures and chords are parodies/interpretations of the original songs. You may use it for private study, scholarship, research or language learning purposes only