» » »

Spellbound Tabs (ver.1)

Artists:  A B C D E F G H I J K L M N O P Q R S T U V W X Y Z # 

Spellbound Tabs (ver.1)

Triumph
Rating:
3/5 (3 votes)

Hard to play? Try these video lessons and learn fast.
                the only tab i saw of this was cr*ppy, anyways, more of the song is in here
and ill finish the rest once i figure it out completely

TRIUMPH-Spellbound

|-----------------------------------------------------------|
|-----------------------------------------------------------|
|--2--5--7-------2--7--9--5--2-------5--7-------10-12~~~~~~~|
|--2--5--7-------2--7--9--5--2-------5--7-------10-12~~~~~~~|  X3
|--0--3--5-------0--5--7--3--0-------3--5-------8--10~~~~~~~|
|-----------------------------------------------------------|

|-------------------------------------------------------------------|
|-------------------------------------------------------------------|
|-----------7--7--7--5--5--5--4--0--2-------------0--------0--------|
|--5--5--5--7--7--7--5--5--5--4--0--2----------2--------0-----5--7--|
|--5--5--5--5--5--5--3--3--3--0-----0-------3--------2--------5--7--|
|--3--3--3----------------------------------------------------3--5--|

|------------------------------------------|
|------------------------------------------|
|--5--4--7-----2-------5--5--4--2----------|
|--5--4--7--5--2-------5--5--4--2--5-------|
|--3--2--5--5--0-------3--3--2--0--5-------|
|------------------------------------------|

|--------------------|        |-------------------------------------------|
|--------------------|        |-------------------------------------------|
|--5--7-------10-12--|        |-----5--7----------5--7----------7--9------|
|--5--7-------10-12--|   X2   |--7--5--7-------7--5--7-------10-7--9------|
|--3--5-------8--10--|        |--7--3--5-------7--3--5-------10-5--7------|
|--------------------|        |--5-------------5-------------8------------|

|--------------------------------------------------------|
|--------------------------------------------------------|
|--9--7-9--9----9--7/9----9--7/9-------------------------|
|--9--7/9--9----9--7/9----9--7/9-------------------------|
|--7--5/7--7----7--5/7----7--5/7----4--4--2--4--2--1-----|
|-----------------------------------------------------2--|

i think its the chorus i have to figure out, and ill rewrite the tab with the 
finished parts later,
my 2nd tab
            
Hard to play? Try these video lessons and learn fast. | Correct




comments powered by Disqus
↑ Back to top | Tablatures and chords are parodies/interpretations of the original songs. You may use it for private study, scholarship, research or language learning purposes only