>
 >
Spellbound

Spellbound Bass Tabs

Triumph - Spellbound chords, tabs, tablatures, lyrics

Guitar lessons | Add/correct | Request | Top 50 tabs Artists:  A B C D E F G H I J K L M N O P Q R S T U V W X Y Z 0-9

Spellbound Bass Tabs – Triumph

CD, Sheet music, Poster

Do you like Spellbound? Share with your friends now
Bass TabsTabsTabs v2
-------------------------------------------------------------------------------
-------------------------------------------------------------------------------


Tuning: Standard


  INTRO:  
G|-------------------------------------------------------------------------|
D|-------------------------------------------------------------------------|
A|-------------------------------------------------------------------------|
E|-5----5----5----5\----5----5----5--------5-5-5-5-5-5-5-5-5-5-5-5-5-5-5-5-|

G|-------------------------------------------------------------------------|
D|-------------------------------------------------------------------------|
A|-------------------------------------5-5-5---3-3-3---2-----------3--2----|
E|-5-5-5-5-5-5-5-5-5-5-5-5-5-5-3-3-3---------------------3-5-------------3-|

G|-----------------------------------------------------------------|
D|-----------------------------------------------------------------|
A|-----------------------------------------------------------------|
E|-5-5-5-5-5-5-5-5-5-5-5-5-5-5-5-5-5-5-5-5-5-5-5-5-5-5-5-5-5-0-0-3-|


  VERSE: "If looks could kill..."
G|---------------------------------|
D|---------------------------------|
A|---------------------------------|  Play 4x
E|-5-5-5-5-5-5-5-5-5-5-5-5-5-0-3-0-|

  PRE-CHORUS: "A second glance..."
G|---------------------------------------------------------------------------------|
D|----------------------------------------------------------------2-0--2-0---------|
A|---3-5---------3-5--------3-5-7-----------7-5-5----5-7---7----------3---3-2------|
E|-5-----------5--------------------0-0---0------------------0----------------3-/5-|

  CHORUS: "Spellbound...."
G|------------------------------------------------------------------------|
D|---------3---3-5-----------------5---------------------------3---3-5----|
A|-----------3--------8-7-5----5-7----8-7-5----------------------3--------|
E|-5--5---------------------8----------------0-3-5--5/(8)-5---------------|

G|--------------------------------------------------------------------------------------|
D|--------------5--------------------------3---3-5--------------------------------------|
A|-8-7-5----5-7----8-7-5---------------------3------------5-5-5--3-3-3--2-------3--2----|
E|-------8----------------0-3-5--5/(8)-5-----------3-3-3------------------3-5---------3-|

  VERSE: "I don't make promises..."  (Play VERSE part above)

  PRE-CHORUS: "I'm shook up..."  (Play PRE-CHORUS part above)

  CHORUS: "Spellbound...."  (Play CHORUS part above)


  BRIDGE: "I'm on a one way ride..."
G|---------------------------------------------------5-3---------5---2----0--2-4----|
D|---------------0--0-3-----------------3-/(5)-3---5-----------5---3----------------|
A|------0-3----------------3--5------0----------------------------------------------|
E|-1--------3-------------------3------------------------1-3------------------------|

G|-2-4-/7----5--7-/9-----12------12-/14--------------------------------------|
D|---------------------------------------------------------------------------|
A|---------------------------------------------------------------------------|
E|---------------------------------------------------------------------------|


  GUITAR SOLO
G|------------------------------------------------------------------------------------|
D|------------------------------------------------------------------------------------|
A|--------------5-5---------------------7----5-5---------------------7----5-5---------|
E|-0-0-0-3-0-----------5-5-3---0-0-0-3/-------------5-5-3---0-0-0-3/------------5-5-3-|

G|-----------------------------------------------------------------------------------|
D|---------------------2-0-----------------------------------------------------------|
A|----------7----5-5-3-----3-2-------------------------------------------------------|
E|-0-0-0-3/--------------------3-5---------------------------------------------------|


  INTRO/PRE-CHORUS
G|------------------------------------------------------------------------|
D|------------------------------------------------------------------------|
A|------------------------------------------------------------------------|
E|-5----5----5----5----5----5----5---0-3/-5-5-5-5-5-5-5-5-5-5-5-5-5-5-5-5-|

                                     "I clear my head..."
G|--------------------------------------------------------------------|
D|--------------------------------------------------------------------|
A|--------------------------------------3-5---------3-5-------3-5-7---|
E|-5-5-5-5-5-5-5-5-5-5-5-5-5-0-3-/(5)-5-----------5-------------------|

G|---------------------------------------------------------------|
D|---------------------------------------------2-0--2-0----------|
A|---------------7-5--5--5-5-5-5-h7-7--------------3---3-2-------|
E|-0-0-0-0-0-0-0----------------------0---0-0--------------3-/5--|


  CHORUS: "Spellbound..."
G|--------------------------------------------------------------------------|
D|------------3---3-5-----------------5--------------------------3---3-5----|
A|--------------3--------8-7-5----5-7----8-7-5---------------------3--------|
E|-5/(8)-5---------------------8----------------0-3-5--5/(8)-5--------------|

G|-----------------------------------------------------------------------------|
D|--------------5--------------------------3---3-5-----------------------------|
A|-8-7-5----5-7----8-7-5---------------------3------------5-5-5--3-3-3--2------|
E|-------8----------------0-3-5--5/(8)-5-----------3-3-3------------------3-5--|

   OUTRO
G|----------------------------------------------------------|
D|---------------------5---5-7-------------------7----------|
A|-----------------------5--------10-9-7-----7-9----10-9-7--|
E|-3-5-7---7/(10)-7----------------------10-----------------|
                                   START FADE
G|----------------------------------------------------------|
D|---7-9---------------5---5-7-------------------7----------|
A|-9---------------------5--------10-9-7-----7-9----10-9-7--|
E|---------7/(10)-7----------------------10-----------------|

G|----------------------------------------------------------|
D|---7-9---------------5---5-7------------------------------|
A|-9---------------------5------------7-7-7--5-5-5--4-------|
E|---------7/(10)-7------------5-5-5------------------5--7--|




|  /  slide up
| ( ) not struck





Comments


Popular Triumph tabs & chords
Magic Power Bass Tabs
Suitcase Blues Chords
24 Hours A Day Tabs
Follow Your Heart Tabs
Magic Power Tabs
Midsummer's Daydream Tabs
Nature's Child Tabs
Spellbound (Intro) Tabs
Spellbound 1 Tabs
Hold On Ukulele


Song lyrics



↑ Back to top | Tablatures and chords are parodies/interpretations of the original songs. You may use it for private study, scholarship, research or language learning purposes only
© 2014 AZChords.com Contact us | Privacy policy | DMCA | Add/correct tabs | Request tabs | Top 50 tabs