>
 >
Still Frame 2

Still Frame 2 Guitar Tabs

Trapt - Still Frame 2 chords, tabs, tablatures, lyrics

Guitar lessons | Add/correct | Request | Top 50 tabs Artists:  A B C D E F G H I J K L M N O P Q R S T U V W X Y Z 0-9

Still Frame 2 Guitar Tabs – Trapt

CD, Sheet music, Poster

Do you like Still Frame 2? Share with your friends now
ChordsTabsTabs v2Tabs v3Ukulele
Tuning (7 String Guitar)  BEADGBE

Intro: is bass guitar playing this riff.
e|-------------------------------------------------------|
B|-------------------------------------------------------|
G|-------------------------------------------------------|
D|-------------------------------------------------------|
A|-------------------------------------------------------|
E|-------------------------------------------------------|
B|--12-12-0-0-0--10-10--0---0----8-8-0-0-0--10-10---0--0-|

e|-------------------------------------------------------|
B|-------------------------------------------------------|
G|-------------------------------------------------------|
D|-------------------------------------------------------|
A|-------------------------------------------------------|
E|-------------------------------------------------------|
B|--12-12-0-0-0--10-10--0---0----8-8-0-0-0--10-10--0--12-|

Chorus:
e|--------------------------------------------------------|
B|--------------------------------------------------------|
G|--8--8--8--8--8----------8-----8---------8--------8---8-|
D|--9--9--9--9--9----------9-----9---------9--------9---9-|
A|--9--9--9--9--9----7-----9-----9---------9----7---9---9-|
E|--7--7--7--7--7----5-----7-----7---------7----5---7---7-|
B|--0--0--0--0--0----------0-----0----8----0--------0---0-|

then
e|--------------------------------------------------|
B|--------------------------------------------------|
G|--4--------4----------4--4--4-----4------4--------|
D|--4--------4----------4--4--4-----4------4--------|
A|--2--------2----------2--2--2-----2------2--------|
E|--2--------2----------2--2--2-----2------2--------|
B|--0--------0----------0--0--0-----0------0--------|

e|--------------------------------------------------|
B|--7------7------7--7---7--------7--------x--x-----|
G|--9------9------9--9---9--------9--------x--x-----|
D|--9------9------9--9---9--------9--------x--x-----|
A|--7------7------7--7---7--------7--------x--x-----|
E|--0------0------0--0---0--------0--------x--x-----|
B|--------------------------------------------------|

Verse: (palm muted)
e|-----------------------------------------------------------|
B|-----------------------------------------------------------|
G|---------8---------8-----------------6--------6------------|
D|---9-9-9-----9-9-9-----9-9-9-9-7-7-7----7-7-7----7-7-7-7---|
A|-----------------------------------------------------------|
E|-----------------------------------------------------------|
B|-----------------------------------------------------------|

e|-------------------------------------------------------------|
B|-------------------------------------------------------------|
G|--------4--------4----------------6--------6---------------8-|
D|--5-5-5----5-5-5----5-5-5-5-7-7-7----7-7-7---7-7-7-7-9-9-9---|
A|-------------------------------------------------------------|
E|-------------------------------------------------------------|
B|-------------------------------------------------------------|

e|----------------------------------------------------------|
B|----------------------------------------------------------|
G|--------8----------------6--------6-----------------4-----|
D|--9-9-9----9-9-9-9-7-7-7----7-7-7----7-7-7-7--5-5-5-------|
A|----------------------------------------------------------|
E|----------------------------------------------------------|
B|----------------------------------------------------------|

e|-------------------------------------------||
B|-------------------------------------------||
G|--------4----------------6--------6--------||
D|--5-5-5----5-5-5-5-7-7-7----7-7-7------7---||o
A|-------------------------------------------||o
E|-------------------------------------------||
B|-------------------------------------------||

Lyrics.. A small reflection   on....
e|---------------------------------------------------------|
B|---------------------------------------------------------|
G|-----------------8---------8-------------------6------6--|
D|--7-/-9---9----------9--9------9----9\-7--7--------7-----|
A|---------------------------------------------------------|
E|---------------------------------------------------------|
B|---------------------------------------------------------|

e|-------------------------------3-------------------------|
B|---------------------------------------------------------|
G|-----6----------------4-------------4--------------------|
D|--7------7-\-5---5--------5-------------5----5/7----7----|
A|---------------------------------------------------------|
E|---------------------------------------------------------|
B|---------------------------------------------------------|

e|---------------------------------------------------------|
B|---------------------------------------------------------|
G|--6---------6h9p6----------------8----------8------------|
D|------7-----------7----7/9---9-------9---9-----9---9/7---|
A|---------------------------------------------------------|
E|---------------------------------------------------------|
B|---------------------------------------------------------|
 What this future will hold for us...........
e|---------------------------------3-----------------------|
B|---------------------------------------------------------|
G|-------6-----6---6----------4-------4--------------6-----|
D|--7--------7---7----7/5--5----5--------5--5/7--7-----7---|
A|---------------------------------------------------------|
E|---------------------------------------------------------|
B|---------------------------------------------------------|

Bridge: Clean w/delay
e|---------------------------------------------------------|
B|---------------------------------------------------------|
G|--9---8----8h9---8------------8h9---8--------------------|
D|--------------------9--0--7--------------9----0---7------|
A|---------------------------------------------------------|
E|---------------------------------------------------------|
B|---------------------------------------------------------|

e|----------------------------------19-19-19-19-0-0-19-19--|
B|---------------------------------------------------------|
G|--8h9----9/11---9--8-------------------------------------|
D|----------------------9--7--9----------------------------|
A|---------------------------------------------------------|
E|---------------------------------------------------------|
B|---------------------------------------------------------|

e|--19-19-0-0-19-19-0-0--17-17-17-17-0-0-17-17-17-17-0-0---|
B|---------------------------------------------------------|
G|---------------------------------------------------------|
D|---------------------------------------------------------|
A|---------------------------------------------------------|
E|---------------------------------------------------------|
B|---------------------------------------------------------|

e|--19-19-0-0--15-15-15-15-0-0-15-15-15-15-0-0-17-17-0-0---|
B|---------------------------------------------------------|
G|---------------------------------------------------------|
D|---------------------------------------------------------|
A|---------------------------------------------------------|
E|---------------------------------------------------------|
B|---------------------------------------------------------|

e|--14-14-14-14-14-14-12-12-12-12-0-0-14-14-14-14-14-------|
B|---------------------------------------------------------|
G|---------------------------------------------------------|
D|---------------------------------------------------------|
A|---------------------------------------------------------|
E|---------------------------------------------------------|
B|---------------------------------------------------------|

guitar 2
e|---------------------------------------------------------|
B|---------------------------------------------------------|
G|---------------------------------------------------------|
D|---------------------------------------------------------|
A|--6-6-6-6-x-x-6-6-6-6-x-x-6-6-x---4-4-4-4-x-x-4-4-4-4-x-x|
E|--7-7-7-7-x-x-7-7-7-7-x-x-7-7-x-0-5-5-5-5-x-x-5-5-5-5-x-x|
B|---------------------------------------------------------|
slight pm...................................................

lyrics...... farther away..... i'm fallin far from where
e|---------------------------------------------------------|
B|---------------------------------------------------------|
G|---------------------------------------------------------|
D|---------------------------------------------------------|
A|-4-4-x-----2-2-2-2-x-x-2-2-2-2-x-x-2-2-x-x-4-4-4-4-x-x---|
E|-5-5-x-0---3-3-3-3-x-x-3-3-3-3-x-x-3-3-x-x-5-5-5-5-x-x---|
B|---------------------------------------------------------|
sl. pm.....................................................

e|---------------------------------------------------------------|
B|---------------------------------------------------------------|
G|---------------------------------------------------------------|
D|---------------------------------------------------------------|
A|--4-4-4-4-x-x-4-4-x-x-6-6-6-6-6-6-6-6-6-6-6-6--4-4-4-4-4-4-4-4-|
E|--5-5-5-5-x-x-5-5-x-x-7-7-7-7-7-7-7-7-7-7-7-7--5-5-5-5-5-5-5-5-|
B|---------------------------------------------------------------|

e|--------------------------------------------------------------|
B|--------------------------------------------------------------|
G|--------------------------------------------------------------|
D|--------------------------------------------------------------|
A|--4-4-4-4-4-4--0-2-2-2-2-2-2-2-2-2-2-2-4-4-4-4-4-4-4-4-4-4----|
E|--5-5-5-5-5-5----3-3-3-3-3-3-3-3-3-3-3-5-5-5-5-5-5-5-5-5-5----|
B|--------------------------------------------------------------|

Outro:
e|------------------------------------------------------------|
B|------------------------------------------------------------|
G|---8----8----7-------7-----9---9----4----4---------------4--|
D|---x----x----x-------x-----x---x----4----4-----9---9-----4--|
A|---6----6----5-------5-----7---7----2----2-----x---x-----2--|
E|------------------------------------2----2-----7---7-----2--|
B|------------------------------------0----0---------------0--|





Comments


Popular Trapt tabs & chords
Head Strong 1 Bass Tabs
Ready When You Are Bass Tabs
Stories 2 Bass Tabs
Headstrong 7 Tabs
Lost Realist 1 Tabs
Made Of Glass 1 Tabs
Stories (Solo) Tabs
Stories 1 Tabs
Victim Tabs
Whos Going Home With You Tonight 1 Tabs


Song lyrics



↑ Back to top | Tablatures and chords are parodies/interpretations of the original songs. You may use it for private study, scholarship, research or language learning purposes only
© 2014 AZChords.com Contact us | Privacy policy | DMCA | Add/correct tabs | Request tabs | Top 50 tabs