» » »

Trapt, Still Frame Tabs (ver.2)

Artists:  A B C D E F G H I J K L M N O P Q R S T U V W X Y Z # 

Still Frame Tabs (ver.2)

Trapt Tabs
Rating:
0/5 (0 votes)
Still Frame lessons Tabs too difficult? Try these video lessons and learn fast
                This is the six string version for this song because 
very few people have a seven string guitar or a baritone.

Standard Tunning
EQ: bass/mid/treble-7/5/7
114 BPM

Intro (clean)
(the intro is up 2 octaves from the real song so either use an 
octave pedal or just dont play with the song)

|------------------------------|----------------------------|
|-12-12-0-0-0--10-10--0---0----|-8-8-0-0-0--10-10--0---0----|
|------------------------------|----------------------------|
|------------------------------|----------------------------|
|------------------------------|----------------------------|
|------------------------------|----------------------------|

|------------------------------|-----------------------------||
|-12-12-0-0-0--10-10--0---0----|-8-8-0-0-0--10-10--0---12----||
|------------------------------|-----------------------------||
|------------------------------|-----------------------------||
|------------------------------|-----------------------------||
|------------------------------|-----------------------------||

Chorus(distorted)
    ________________Play 4 Times_________________
   |                                             |
||-------------------------|----------------------|-------------------|
||-------------------------|----------------------|-2-----2-------2-2-|
||o-8-8-8-8-8------8--8----|-----8-------8---8----|-4-----4-------4-4-|
||o-9-9-9-9-9------9--9----|-----9-------9---9----|-4-----4-------4-4-|
||--9-9-9-9-9--7---9--9----|-----9---7---9---9----|-2-----2-------2-2-|
||--7-7-7-7-7--5---7--7----|-3~~~7---5---7---7----|-2-----2-------2-2-|

|--------------------|------------------|------------------|
|-2-----2-------2----|-7-----7------7-7-|-7-----7------x-x-|
|-4-----4-------4----|-9-----9------9-9-|-9-----9------x-x-|
|-4-----4-------4----|-9-----9------9-9-|-9-----9------x-x-|
|-2-----2-------2----|-7-----7------7-7-|-7-----7------x-x-|
|-2-----2-------2----|-0-----0------0-0-|-0-----0------x-x-|

Verse
|-----------------------------|-----------------------------|
|-----------------------------|-----------------------------|
|---------8--------8----------|---------6--------6----------|
|-9-9-9-9----9-9-9----9-9-9-9-|-7-7-7-7----7-7-7----7-7-7-7-|
|-----------------------------|-----------------------------|
|-----------------------------|-----------------------------|
PM..........................................................

|-----------------------------|-----------------------------|
|-----------------------------|-----------------------------|
|---------4--------4----------|---------6--------6----------|
|-5-5-5-5----5-5-5----5-5-5-5-|-7-7-7-7----7-7-7----7-7-7-7-|
|-----------------------------|-----------------------------|
|-----------------------------|-----------------------------|
PM..........................................................

|-----------------------------|-----------------------------|
|-----------------------------|-----------------------------|
|---------8--------8----------|---------6--------6----------|
|-9-9-9-9----9-9-9----9-9-9-9-|-7-7-7-7----7-7-7----7-7-7-7-|
|-----------------------------|-----------------------------|
|-----------------------------|-----------------------------|
PM..........................................................

|-----------------------------|------------------------------||
|-----------------------------|------------------------------||
|---------4--------4----------|---------6--------6----------o||
|-5-5-5-5----5-5-5----5-5-5-5-|-7-7-7-7----7-7-7----7~~~~~~~o||
|-----------------------------|------------------------------||
|-----------------------------|------------------------------||
PM................................................

|-----------------------------|--------------------------|
|-----------------------------|--------------------------|
|---------6--------6----------|-----------8--------8-----|
|-7-7-7-7----7-7-7----7~~~~~~~|-7/9--9-------9--9-----9--|
|-----------------------------|--------------------------|
|-----------------------------|--------------------------|
PM..................

|--------------------------|-----------------3--------|
|--------------------------|--------------------4-----|
|-----------6-----6-----6--|-----------4-----------5--|
|-9\7--7-------7-----7-----|-7\5--5-------5-----------|
|--------------------------|--------------------------|
|--------------------------|--------------------------|

|----------------------------|--------------------------|
|----------------------------|--------------------------|
|-----------6-----6h9p6------|-----------8--------8-----|
|-5/7--7-------7--------7~~~~|-7/9--9-------9--9-----9--|
|----------------------------|--------------------------|
|----------------------------|--------------------------|

|--------------------------|-----------------3--------|
|--------------------------|--------------------4-----|
|-----------6-----6-----6--|-----------4-----------5--|
|-9\7--7-------7-----7-----|-7\5--5-------5-----------|
|--------------------------|--------------------------|
|--------------------------|--------------------------|
                                             
|-----------------------|
|-----------------------|
|-----------6-----------|
|-5/7--7-------7--------|
|-----------------------|
|-----------------------|

Bridge
 
                        Clean(w/ delay)
|-------------------|--------------------|-------------------|
|-------------------|--------------------|-------------------|
|-------------------|-9-----8-----8h9----|-8-------------8h9-|
|-------------------|--------------------|----9--0-7---------|
|-------------------|--------------------|-------------------|
|-------------------|--------------------|-------------------|

|-------------------|--------------------------|
|-------------------|--------------------------|
|-8-------------8h9-|-9/11--9--8---------------|
|----9--0-7---------|-------------9--7--9------|
|-------------------|--------------------------|
|-------------------|--------------------------|

|-19-19-19-19-0-0-19-19-19-19-0-0-19-19-0-0-|
|-------------------------------------------|
|-------------------------------------------|
|-------------------------------------------|
|-------------------------------------------|
|-------------------------------------------|

|-17-17-17-17-0-0-17-17-17-17-0-0-19-19-0-0-|
|-------------------------------------------|
|-------------------------------------------|
|-------------------------------------------|
|-------------------------------------------|
|-------------------------------------------|

|-14-14-14-14-14-14-12-12-12-12-0-0-14-14-14-14-|
|-----------------------------------------------|
|-----------------------------------------------|
|-----------------------------------------------|
|-----------------------------------------------|
|-----------------------------------------------|

 Clean(no delay)
|----------------------------------|---------------------------------|
|----------------------------------|---------------------------------|
|----------------------------------|---------------------------------|
|----------------------------------|---------------------------------|
|-6-6-6-6-x-x-6-6-6-6-x-x-6-6--x---|-4-4-4-4-x-x-4-4-4-4-x-x-4-4-x---|
|-7-7-7-7-x-x-7-7-7-7-x-x-7-7--x-0-|-5-5-5-5-x-x-5-5-5-5-x-x-5-5-x-0-|
Slight PM............................................................

|---------------------------------|----------------------------------|
|---------------------------------|----------------------------------|
|---------------------------------|----------------------------------|
|---------------------------------|----------------------------------|
|-2-2-2-2-x-x-2-2-2-2-x-x-2-2-x-x-|-4-4-4-4-x-x-4-4-4-4-x-x-4-4------|
|-3-3-3-3-x-x-3-3-3-3-x-x-3-3-x-x-|-5-5-5-5-x-x-5-5-5-5-x-x-5-5------|
Slight PM.......................................................

|---------------------------------|---------------------------------|
|---------------------------------|---------------------------------|
|---------------------------------|---------------------------------|
|---------------------------------|---------------------------------|
|-6-6-6-6-6-6-6-6-6-6-6-6-6-6-6-0-|-4-4-4-4-4-4-4-4-4-4-4-4-4-4-4-0-|
|-7-7-7-7-7-7-7-7-7-7-7-7-7-7-7---|-5-5-5-5-5-5-5-5-5-5-5-5-5-5-5---|

|---------------------------------|---------------------------------|
|---------------------------------|---------------------------------|
|---------------------------------|---------------------------------|
|---------------------------------|---------------------------------|
|-2-2-2-2-2-2-2-2-2-2-2-2-2-2-2-2-|-4-4-4-4-4-4-4-4-4---------------|
|-3-3-3-3-3-3-3-3-3-3-3-3-3-3-3-3-|-5-5-5-5-5-5-5-5-5---------------|

Outro
|-----------------||---------------------|--------------------|
|-----------------||---------------------|--------------------|
|-----------------||o-8---8---7-----7----|-9---9---4-----4----|
|-----------------||o-x---x---x-----x----|-x---x---4-----4----|
|-----------------||--6---6---5-----5----|-7---7---2-----2----|
|-----------------||---------------------|---------2-----2----|

|------------------|-----------------|-----------------||
|------------------|-----------------|-----------------||
|-9---9---4--------|-(4)-------------|-(4)------------o||
|-x---x---4--------|-(4)-------------|-(4)------------o||
|-7---7---2--------|-(2)-------------|-(2)-------------||
|---------2--------|-(2)-------------|-(2)-------------||
(second time skip over the 2nd measure)
            
Submit corrections

comments powered by Disqus
↑ Back to top | Trapt Tabs for Still Frame. Lyrics for acoustic guitar and electric guitar. Tablatures and chords are parodies/interpretations of the original songs. You may use it for private study, scholarship, research or language learning purposes only