» » »

Trapt, Stay Alive Tabs (ver.2)

Artists:  A B C D E F G H I J K L M N O P Q R S T U V W X Y Z # 

Stay Alive Tabs (ver.2)

Trapt Tabs
 Rating:
4/5 (4 votes)
Stay Alive lessons Tabs too difficult? Try these video lessons and learn fast
                ----------------------------------------------------------------------------
                        Stay Alive (ver 2) - Trapt

Tuning: standard

1st intro 
e|--------12-10-----------10---------12-10-----------10--|
B|--------------12-------------------------12------------|
G|-9-12-9----------9-12-9-----9-12-9----------9-12-9-----|
D|-------------------------------------------------------|
A|-------------------------------------------------------|
E|-------------------------------------------------------|

e|-----------------------------------------|
B|-----------------------------------------|                repeat
G|---------------------5-5-5-5-5-5-5-4-----|
D|-5--5-5--5-5--5-5--5-----------------5-4-|
A|-5--5-5--5-5--5-5--5---------------------|
E|-3--3-3--3-3--3-3--3---------------------|

2nd intro
e|--------12-10-----------10---------12-10-----------10--|
B|--------------12-------------------------12------------|
G|-9-12-9----------9-12-9-----9-12-9----------9-12-9-----|
D|-------------------------------------------------------|
A|-------------------------------------------------------|
E|-------------------------------------------------------|

e|------------------------------------------------------|
B|------------------------------------------------------|   repeat
G|-12-9-12/16-------------------------------------------|  
D|--------------12-9-12/16--10-10-10-10-10-10-10-9------| (i find this easier
A|-------------------------------------------------10-9-| than going back to
E|------------------------------------------------------| the 5th fret of G)

verse 1
e|---7-10-7----------|
B|----------10-------|  x4
G|-9-----------7-9---|
D|-----------------9-|
A|-------------------|
E|-------------------|

pre-chorus
e|-------------------------------------------------------------|
B|-------------------------------------------------------------|
G|-------------------------------------------------------------|
D|-2--2-2--2-2--2-2--2-2--2-2--2-2--2-2--2-5--5-5--5-5--5-5--5-|
A|-2--2-2--2-2--2-2--2-2--2-2--2-2--2-2--2-5--5-5--5-5--5-5--5-|
E|-0--0-0--0-0--0-0--0-0--0-0--0-0--0-0--0-3--3-3--3-3--3-3--3-|

e|---------------------|
B|---------------------|                   repeat
G|-5-5-5-5-5-5-5-4-----|
D|-----------------5-4-|
A|---------------------|
E|---------------------|

chorus 
e|--------------------------------|
B|--------------------------------|
G|---------7--7-7-----------------|
D|-2--2-2--x--x-x--5--5-5--5--5-5-|
A|-2--2-2--5--5-5--5--5-5--5--5-5-|
E|-0--0-0----------3--3-3--3--3-3-|

e|--------------------------------|
B|--------------------------------|        repeat
G|---------7--7-7-----------------|
D|-2--2-2--x--x-x--5--5-5--5--5/7-|
A|-2--2-2--5--5-5--5--5-5--5--5/7-|
E|-0--0-0----------3--3-3--3--3/5-|

verse 2
e|---7-10-7----------|
B|----------10-------|  x4
G|-9-----------7-9---|
D|-----------------9-|
A|-------------------|
E|-------------------|

pre-chorus
e|-------------------------------------------------------------|
B|-------------------------------------------------------------|
G|-------------------------------------------------------------|
D|-2--2-2--2-2--2-2--2-2--2-2--2-2--2-2--2-5--5-5--5-5--5-5--5-|
A|-2--2-2--2-2--2-2--2-2--2-2--2-2--2-2--2-5--5-5--5-5--5-5--5-|
E|-0--0-0--0-0--0-0--0-0--0-0--0-0--0-0--0-3--3-3--3-3--3-3--3-|

e|---------------------|
B|---------------------|                   repeat
G|-5-5-5-5-5-5-5-4-----|
D|-----------------5-4-|
A|---------------------|
E|---------------------|

chorus 
e|--------------------------------|
B|--------------------------------|
G|---------7--7-7-----------------|
D|-2--2-2--x--x-x--5--5-5--5--5-5-|
A|-2--2-2--5--5-5--5--5-5--5--5-5-|
E|-0--0-0----------3--3-3--3--3-3-|

e|--------------------------------|
B|--------------------------------|        repeat
G|---------7--7-7-----------------|
D|-2--2-2--x--x-x--5--5-5--5--5/7-|
A|-2--2-2--5--5-5--5--5-5--5--5/7-|
E|-0--0-0----------3--3-3--3--3/5-|

bridge
e|--------12-10-----------10---------12-10-----------10--|
B|--------------12-------------------------12------------|
G|-9-12-9----------9-12-9-----9-12-9----------9-12-9-----|
D|-------------------------------------------------------|
A|-------------------------------------------------------|
E|-------------------------------------------------------|

e|-----------------------------------------|
B|-----------------------------------------|
G|---------------------5-5-5-5-5-5-5-4-----|
D|-5--5-5--5-5--5-5--5-----------------5-4-|
A|-5--5-5--5-5--5-5--5---------------------|
E|-3--3-3--3-3--3-3--3---------------------|

e|--------12-10-----------10---------12-10-----------10--|
B|--------------12-------------------------12------------|
G|-9-12-9----------9-12-9-----9-12-9----------9-12-9-----|
D|-------------------------------------------------------|
A|-------------------------------------------------------|
E|-------------------------------------------------------|

e|-----------------------------------------|
B|-----------------------------------------|
G|---------------------5-5-5-5-5-5-5-4-----|
D|-5--5-5--5-5--5-5--5-----------------5-4-|
A|-5--5-5--5-5--5-5--5---------------------|
E|-3--3-3--3-3--3-3--3---------------------|

e|--------12-10-----------10---------12-10-----------10--|
B|--------------12-------------------------12------------|
G|-9-12-9----------9-12-9-----9-12-9----------9-12-9-----|
D|-------------------------------------------------------|
A|-------------------------------------------------------|
E|-------------------------------------------------------|

e|-----------------------------------------------------|
B|-----------------------------------------------------|
G|-12-9-12/16------------------------------------------|
D|-------------12-9-12/16--10-10-10-10-10-10-10-9------|
A|------------------------------------------------10-9-|
E|-----------------------------------------------------|

e|--------12-10-----------10---------12-10-----------10--|
B|--------------12-------------------------12------------|
G|-9-12-9----------9-12-9-----9-12-9----------9-12-9-----|
D|-------------------------------------------------------|
A|-------------------------------------------------------|
E|-------------------------------------------------------|

e|-------------------------|
B|-------------------------|
G|-12-9-12/16--------------|
D|-------------12-9-12/16--|
A|-------------------------|
E|-------------------------|

final chorus 
e|--------------------------------|
B|--------------------------------|
G|---------7--7-7-----------------|
D|-2--2-2--x--x-x--5--5-5--5--5-5-|
A|-2--2-2--5--5-5--5--5-5--5--5-5-|
E|-0--0-0----------3--3-3--3--3-3-|

e|--------------------------------|
B|--------------------------------|
G|---------7--7-7-----------------|
D|-2--2-2--x--x-x--5--5-5--5--5/7-|
A|-2--2-2--5--5-5--5--5-5--5--5/7-|
E|-0--0-0----------3--3-3--3--3/5-|
 
e|--------------------------------|
B|--------------------------------|
G|---------7--7-7-----------------|
D|-2--2-2--x--x-x--5--5-5--5--5-5-|
A|-2--2-2--5--5-5--5--5-5--5--5-5-|
E|-0--0-0----------3--3-3--3--3-3-|

e|--------------------------------|
B|--------------------------------|
G|---------7--7-7----------7--5-2-|
D|-2--2-2--x--x-x--5--5-5--x--x-x-|
A|-2--2-2--5--5-5--5--5-5--5--3-0-|
E|-0--0-0----------3--3-3---------|

outro
e|--------------------------------|
B|--------------------------------|
G|---------7--7-7-----------------|
D|-2--2-2--x--x-x--5--5-5--5--5-5-|
A|-2--2-2--5--5-5--5--5-5--5--5-5-|
E|-0--0-0----------3--3-3--3--3-3-|

e|--------------------------------|
B|--------------------------------|
G|---------7--7-7-----------------|
D|-2--2-2--x--x-x--5--5-5--5--5/7-|
A|-2--2-2--5--5-5--5--5-5--5--5/7-|
E|-0--0-0----------3--3-3--3--3/5-|

e|--------------------------------|
B|--------------------------------|
G|---------7--7-7-----------------|
D|-2--2-2--x--x-x--5--5-5--5--5-5-|
A|-2--2-2--5--5-5--5--5-5--5--5-5-|
E|-0--0-0----------3--3-3--3--3-3-|

e|---------------------------------------------|
B|---------------------------------------------|
G|--------7/9-7--5-----------------------------|
D|-2--2-2-x---x--x--5----2----h2/7~----------2-| (use middle finger on right
A|-2--2-2-5/7-5--3--5----2-------------------2-| hand for slide & vibrato)
E|-0--0-0-----------3----0-------------------0-|
                         hold  
            
Submit corrections

comments powered by Disqus
↑ Back to top | Trapt Tabs for Stay Alive. Lyrics for acoustic guitar and electric guitar. Tablatures and chords are parodies/interpretations of the original songs. You may use it for private study, scholarship, research or language learning purposes only