>
 >
Stay Alive

Stay Alive Guitar Tabs

Trapt - Stay Alive chords, tabs, tablatures, lyrics

Guitar lessons | Add/correct | Request | Top 50 tabs Artists:  A B C D E F G H I J K L M N O P Q R S T U V W X Y Z 0-9

Stay Alive Guitar Tabs – Trapt

CD, Sheet music, Poster

Do you like Stay Alive? Share with your friends now
TabsTabs v2
-------------------------------------------------------------------------------
-------------------------------------------------------------------------------

Tuning: Standard

Introduction [0:00-0:03]
e|-------------------------------|
B|---------17-15--------------15-|
G|--------------16---------------|
D|-14-17-14-----------14-17-14---| x2
A|-------------------------------|
E|-------------------------------|

Introduction [0:04-0:07]
e|-----------------------------------|
B|-----------------------------------|
G|--------------------5555555-4------|
D|--5-5-5-5-5-5-5-5-------------5-4--|
A|--5-5-5-5-5-5-5-5------------------|
E|--3-3-3-3-3-3-3-3------------------|

Introduction [0:08-0:10]
e|-------------------------------|
B|---------17-15--------------15-|
G|--------------16---------------|
D|-14-17-14-----------14-17-14---| x2
A|-------------------------------|
E|-------------------------------|

Introduction [0:11-0:14]
e|-----------------------------------|
B|-----------------------------------|
G|--------------------5555555-4------|
D|--5-5-5-5-5-5-5-5-------------5-4--|
A|--5-5-5-5-5-5-5-5------------------|
E|--3-3-3-3-3-3-3-3------------------|

Pre-Verse [0:15-0:18]

   Guitar 1
   e|-------------------------------|
   B|---------17-15--------------15-|
   G|--------------16---------------|
   D|-14-17-14-----------14-17-14---| x2
   A|-------------------------------|
   E|-------------------------------|

   Guitar 2
   e|-----------------|
   B|-----------------|
   G|-----------------|
   D|-2-2-2-2-2-2-2-2-|
   A|-2-2-2-2-2-2-2-2-|
   E|-0-0-0-0-0-0-0-0-|

Pre-Verse [0:18-0:21]

   Guitar 1
   e|-----------------------------|
   B|-----------------------------|
   G|-12-12-12-/-16---------------|
   D|---------------12-12-12-/-16-|
   A|-----------------------------|
   E|-----------------------------|
   PM .  .  .       .  .  .

   Guitar 2
   e|-----------------------------------|
   B|-----------------------------------|
   G|--------------------5555555-4------|
   D|--5-5-5-5-5-5-5-5-------------5-4--|
   A|--5-5-5-5-5-5-5-5------------------|
   E|--3-3-3-3-3-3-3-3------------------|

Pre-Verse [0:22-0:25]

   Guitar 1
   e|-------------------------------|
   B|---------17-15--------------15-|
   G|--------------16---------------|
   D|-14-17-14-----------14-17-14---| x2
   A|-------------------------------|
   E|-------------------------------|

   Guitar 2
   e|-----------------|
   B|-----------------|
   G|-----------------|
   D|-2-2-2-2-2-2-2-2-|
   A|-2-2-2-2-2-2-2-2-|
   E|-0-0-0-0-0-0-0-0-|

Pre-Verse [0:25-0:28]

   Guitar 1
   e|-----------------------------|
   B|-----------------------------|
   G|-12-12-12-/-16---------------|
   D|---------------12-12-12-/-16-|
   A|-----------------------------|
   E|-----------------------------|
   PM .  .  .       .  .  .

   Guitar 2
   e|-----------------------------------|
   B|-----------------------------------|
   G|--------------------5555555-4------|
   D|--5-5-5-5-5-5-5-5-------------5-4--|
   A|--5-5-5-5-5-5-5-5------------------|
   E|--3-3-3-3-3-3-3-3------------------|

Verse [0:29-0:57]
e|----7--10--7---------------|
B|--------------10-----10----|
G|-9----------------7--------|
D|-------------------------9-| x4
A|---------------------------|
E|---------------------------|

Chorus [0:58-1:11]
e|-----------------|
B|-----------------|
G|-----------------|
D|-2-2-2-2-2-2-2-2-|
A|-2-2-2-2-2-2-2-2-|
E|-0-0-0-0-0-0-0-0-|

e|-----------------------------------|
B|-----------------------------------|
G|--------------------5555555-4------|
D|--5-5-5-5-5-5-5-5-------------5-4--| x2
A|--5-5-5-5-5-5-5-5------------------|
E|--3-3-3-3-3-3-3-3------------------|

Chorus [1:11-1:26]
e|----------------------------|
B|----------------------------|
G|--------7-7-7---------------|
D|-2-2-2--x-x-x--5-5-5--5-5-5-|
A|-2-2-2--5-5-5--5-5-5--5-5-5-|
E|-0-0-0---------3-3-3--3-3-3-|

e|----------------------------|
B|----------------------------|
G|--------7-7-7---------------|
D|-2-2-2--x-x-x--5-5-5--5-5-7-| x2
A|-2-2-2--5-5-5--5-5-5--5-5-7-|
E|-0-0-0---------3-3-3--3-3-5-|

Verse [1:27-1:54]
e|----7--10--7---------------|
B|--------------10-----10----|
G|-9----------------7--------|
D|-------------------------9-| x4
A|---------------------------|
E|---------------------------|

Chorus [1:55-2:09]
e|-----------------|
B|-----------------|
G|-----------------|
D|-2-2-2-2-2-2-2-2-|
A|-2-2-2-2-2-2-2-2-|
E|-0-0-0-0-0-0-0-0-|

e|-----------------------------------|
B|-----------------------------------|
G|--------------------5555555-4------|
D|--5-5-5-5-5-5-5-5-------------5-4--| x2
A|--5-5-5-5-5-5-5-5------------------|
E|--3-3-3-3-3-3-3-3------------------|

Chorus [2:10-2:24]
e|----------------------------|
B|----------------------------|
G|--------7-7-7---------------|
D|-2-2-2--x-x-x--5-5-5--5-5-5-|
A|-2-2-2--5-5-5--5-5-5--5-5-5-|
E|-0-0-0---------3-3-3--3-3-3-|

e|----------------------------|
B|----------------------------|
G|--------7-7-7---------------|
D|-2-2-2--x-x-x--5-5-5--5-5-7-| x2
A|-2-2-2--5-5-5--5-5-5--5-5-7-|
E|-0-0-0---------3-3-3--3-3-5-|

Bridge [2:24-2:27]
e|-------------------------------|
B|---------17-15--------------15-|
G|--------------16---------------|
D|-14-17-14-----------14-17-14---| x2
A|-------------------------------|
E|-------------------------------|

Bridge [2:27-2:31]
e|-----------------------------------|
B|-----------------------------------|
G|--------------------5555555-4------|
D|--5-5-5-5-5-5-5-5-------------5-4--|
A|--5-5-5-5-5-5-5-5------------------|
E|--3-3-3-3-3-3-3-3------------------|

Bridge [2:31-2:34]
e|-------------------------------|
B|---------17-15--------------15-|
G|--------------16---------------|
D|-14-17-14-----------14-17-14---| x2
A|-------------------------------|
E|-------------------------------|

Bridge [2:35-2:38]
e|-----------------------------------|
B|-----------------------------------|
G|--------------------5555555-4------|
D|--5-5-5-5-5-5-5-5-------------5-4--|
A|--5-5-5-5-5-5-5-5------------------|
E|--3-3-3-3-3-3-3-3------------------|

Bridge [2:38-2:41]

   Guitar 1
   e|-------------------------------|
   B|---------17-15--------------15-|
   G|--------------16---------------|
   D|-14-17-14-----------14-17-14---| x2
   A|-------------------------------|
   E|-------------------------------|

   Guitar 2
   e|-----------------|
   B|-----------------|
   G|-----------------|
   D|-2-2-2-2-2-2-2-2-|
   A|-2-2-2-2-2-2-2-2-|
   E|-0-0-0-0-0-0-0-0-|

Bridge [2:42-2:45]

   Guitar 1
   e|-----------------------------|
   B|-----------------------------|
   G|-12-12-12-/-16---------------|
   D|---------------12-12-12-/-16-|
   A|-----------------------------|
   E|-----------------------------|
   PM .  .  .       .  .  .

   Guitar 2
   e|-----------------------------------|
   B|-----------------------------------|
   G|--------------------5555555-4------|
   D|--5-5-5-5-5-5-5-5-------------5-4--|
   A|--5-5-5-5-5-5-5-5------------------|
   E|--3-3-3-3-3-3-3-3------------------|

Bridge [2:45-2:48]

   Guitar 1
   e|-------------------------------|
   B|---------17-15--------------15-|
   G|--------------16---------------|
   D|-14-17-14-----------14-17-14---| x2
   A|-------------------------------|
   E|-------------------------------|

   Guitar 2
   e|-----------------|
   B|-----------------|
   G|-----------------|
   D|-2-2-2-2-2-2-2-2-|
   A|-2-2-2-2-2-2-2-2-|
   E|-0-0-0-0-0-0-0-0-|

Bridge [2:49-2:51]

   Guitar 1
   e|-----------------------------|
   B|-----------------------------|
   G|-12-12-12-/-16---------------|
   D|---------------12-12-12-/-16-|
   A|-----------------------------|
   E|-----------------------------|
   PM .  .  .       .  .  .

   Guitar 2
   e|------------------|
   B|------------------|
   G|------------------|
   D|--5-5-5-5-5-5-5-5-|
   A|--5-5-5-5-5-5-5-5-|
   E|--3-3-3-3-3-3-3-3-|

Chorus [2:53-3:13]
e|----------------------------|
B|----------------------------|
G|--------7-7-7---------------|
D|-2-2-2--x-x-x--5-5-5--5-5-5-|
A|-2-2-2--5-5-5--5-5-5--5-5-5-|
E|-0-0-0---------3-3-3--3-3-3-|

e|----------------------------|
B|----------------------------|
G|--------7-7-7---------------|
D|-2-2-2--x-x-x--5-5-5--5-5-7-| x3
A|-2-2-2--5-5-5--5-5-5--5-5-7-|
E|-0-0-0---------3-3-3--3-3-5-|

Outro [3:14-3:18]
e|----------------------------|
B|----------------------------|
G|--------7-7-7---------------|
D|-2-2-2--x-x-x--5-5-5--5-5-5-|
A|-2-2-2--5-5-5--5-5-5--5-5-5-|
E|-0-0-0---------3-3-3--3-3-3-|

Outro [3:18-3:23]
e|-------------------------------|
B|-------------------------------|
G|--------9-7-7------------------|
D|-2-2-2--x-x-x--5---2-let-------|
A|-2-2-2--7-5-5--5---2----it-----|
E|-0-0-0---------3---0------ring-|

Outro [3:24-3:31]
e|------------|
B|------------|
G|------------|
D|----------2-|
A|-/-12~~---2-|
E|----------0-|

===============================================================================
Legend:
===============================================================================
| /  Slide up
| ~  Vibrato
| x  Mute Note
| .  Palm Mute
===============================================================================





Comments


Popular Trapt tabs & chords
Stillframe Bass Tabs
Wherever She Goes Bass Tabs
Lost Realist Tabs
Sound Off Tabs
Sound Off 1 Tabs
Stand Up 1 Tabs
Stories Tabs
Stories 3 Tabs
Stories 5 Tabs
Lost In A Portrait Ukulele


Song lyrics



↑ Back to top | Tablatures and chords are parodies/interpretations of the original songs. You may use it for private study, scholarship, research or language learning purposes only
© 2014 AZChords.com Contact us | Privacy policy | DMCA | Add/correct tabs | Request tabs | Top 50 tabs