» » »

Trapt, Sound Off Tabs (ver.3)

Artists:  A B C D E F G H I J K L M N O P Q R S T U V W X Y Z # 

Sound Off Tabs (ver.3)

Trapt Tabs
 Rating:
4.2/5 (5 votes)
Sound Off lessons Tabs too difficult? Try these video lessons and learn fast
1
                Sound Off
Trapt
No Apologies (2010)

Words & Music by Chris Taylor Brown and Peter Charell

GTR I - B Standard Tuning "Chris Taylor Brown" (b,F#,D,A,E,B)
GTR II - B Standard Tuning "Robb Torres" (b,F#,D,A,E,B)

Intro

   GTR I,II
 b|-------------------------------------------------|
F#|-------------------------------------------------|
 D|-------------------------------------------------|
 A|--4-----------------------5--------------4-----4-|
 E|--5-----3--5--6--5--3--5-----5--3--5--6--5-----5-|
 B|--2--------------------------------------2-----2-|

   GTR I,II
 b|-------------------------------------------------|
F#|-------------------------------------------------|
 D|-------------------------------------------------|
 A|--------------------------5--------------4-----4-|
 E|--------3--5--6--5--3--5-----5--3--5--6--5-----5-|
 B|-----------------------------------------2-----2-|

   GTR I,II
 b|-------------------------------------------------|
F#|-------------------------------------------------|
 D|-----------------------------------------------3-|
 A|--------------------------5--------------4-----3-|
 E|--------3--5--6--5--3--5-----5--3--5--6--5-----1-|
 B|-----------------------------------------2-------|

   GTR I,II
 b|-------------------------------------------------|
F#|-------------------------------------------------|
 D|-----3--3--3--3--3--3----------------------------|
 A|-----3--3--3--3--3--3--3-----3--3--3--3--3--3--3-|
 E|-----1--1--1--1--1--1--3-----3--3--3--3--3--3--3-|
 B|-----------------------1-----1--1--1--1--1--1--1-|

   GTR I,II
 b|-------------------------------------------------|
F#|-------------------------------------------------|
 D|-------------------------------------------------|
 A|--4-----------------------5--------------4-----4-|
 E|--5-----3--5--6--5--3--5-----5--3--5--6--5-----5-|
 B|--2--------------------------------------2-----2-|

   GTR I,II
 b|-------------------------------------------------|
F#|-------------------------------------------------|
 D|-------------------------------------------------|
 A|--------------------------5--------------4-----4-|
 E|--------3--5--6--5--3--5-----5--3--5--6--5-----5-|
 B|-----------------------------------------2-----2-|

   GTR I,II
 b|-------------------------------------------------|
F#|-------------------------------------------------|
 D|-----------------------------------------------3-|
 A|--------------------------5--------------4-----3-|
 E|--------3--5--6--5--3--5-----5--3--5--6--5-----1-|
 B|-----------------------------------------2-------|

   GTR I,II
 b|-------------------------------------------------|
F#|-------------------------------------------------|
 D|-----3--3--3--3--3--3----------------------------|
 A|-----3--3--3--3--3--3--3-----3--3--3--3--3--3--3-|
 E|-----1--1--1--1--1--1--3-----3--3--3--3--3--3--3-|
 B|-----------------------1-----1--1--1--1--1--1--1-|

Verse

   GTR I
 b|-------------------------------------------------|
F#|-------------------------------------------------|
 D|-------------------------------------------------|
 A|--7--7--7--7--7--7--7--7--7--7--7--7--7--7--7--7-|
 E|--5--5--5--5--5--5--5--5--5--5--5--5--5--5--5--5-|
 B|-------------------------------------------------|
  |        .  .  .  .  .  .        .  .  .  .  .  .
  |GTR II
 b|-------------------------------------------------|
F#|-------------------------------------------------|
 D|-14-14-------14-14-------12-12-------12-12-------|
 A|-------12-12-------12-12-------12-12-------12-12-|
 E|-------------------------------------------------|
 B|-------------------------------------------------|
           .  .        .  .        .  .        .  .

   GTR I
 b|-------------------------------------------------|
F#|-------------------------------------------------|
 D|-------------------------------------------------|
 A|--3--3--3--3--3--3--3--3--5--5--5--5--5--5--5--5-|
 E|--1--1--1--1--1--1--1--1--3--3--3--3--3--3--3--3-|
 B|-------------------------------------------------|
  |        .  .  .  .  .  .        .  .  .  .  .  .
  |GTR II
 b|-------------------------------------------------|
F#|-------------------------------------------------|
 D|-14-14-------14-14-------10-10--------9--9-------|
 A|-------12-12-------10-10-------10-10-------10-10-|
 E|-------------------------------------------------|
 B|-------------------------------------------------|
           .  .        .  .        .  .        .  .

   GTR I
 b|-------------------------------------------------|
F#|-------------------------------------------------|
 D|-------------------------------------------------|
 A|--7--7--7--7--7--7--7--7--7--7--7--7--7--7--7--7-|
 E|--5--5--5--5--5--5--5--5--5--5--5--5--5--5--5--5-|
 B|-------------------------------------------------|
  |        .  .  .  .  .  .        .  .  .  .  .  .
  |GTR II
 b|-------------------------------------------------|
F#|-------------------------------------------------|
 D|-14-14-------14-14-------12-12-------12-12-------|
 A|-------12-12-------12-12-------12-12-------12-12-|
 E|-------------------------------------------------|
 B|-------------------------------------------------|
           .  .        .  .        .  .        .  .

   GTR I
 b|-------------------------------------------------|
F#|-------------------------------------------------|
 D|-------------------------------------------------|
 A|--3--3--3--3--3--3--3--3--5--5--5--5--5--5--5--5-|
 E|--1--1--1--1--1--1--1--1--3--3--3--3--3--3--3--3-|
 B|-------------------------------------------------|
  |        .  .  .  .  .  .        .  .  .  .  .  .
  |GTR II
 b|-------------------------------------------------|
F#|-------------------------------------------------|
 D|-14-14-------14-14-------10-10--------9--9-------|
 A|-------12-12-------10-10-------10-10-------10-10-|
 E|-------------------------------------------------|
 B|-------------------------------------------------|
           .  .        .  .        .  .        .  .

   GTR I
 b|-------------------------------------------------|
F#|-------------------------------------------------|
 D|-------------------------------------------------|
 A|--7--7--7--7--7--7--7--7--7--7--7--7--7--7--7--7-|
 E|--5--5--5--5--5--5--5--5--5--5--5--5--5--5--5--5-|
 B|-------------------------------------------------|
  |        .  .  .  .  .  .        .  .  .  .  .  .
  |GTR II
 b|-------------------------------------------------|
F#|-------------------------------------------------|
 D|-14-14-------14-14-------12-12-------12-12-------|
 A|-------12-12-------12-12-------12-12-------12-12-|
 E|-------------------------------------------------|
 B|-------------------------------------------------|
           .  .        .  .        .  .        .  .

   GTR I
 b|-------------------------------------------------|
F#|-------------------------------------------------|
 D|-------------------------------------------------|
 A|--3--3--3--3--3--3--3--3--5--5--5--5--5--5--5--5-|
 E|--1--1--1--1--1--1--1--1--3--3--3--3--3--3--3--3-|
 B|-------------------------------------------------|
  |        .  .  .  .  .  .        .  .  .  .  .  .
  |GTR II
 b|-------------------------------------------------|
F#|-------------------------------------------------|
 D|-14-14-------14-14-------10-10--------9--9-------|
 A|-------12-12-------10-10-------10-10-------10-10-|
 E|-------------------------------------------------|
 B|-------------------------------------------------|
           .  .        .  .        .  .        .  .

   GTR I
 b|-------------------------------------------------|
F#|-------------------------------------------------|
 D|-------------------------------------------------|
 A|--7--7--7--7--7--7--7--7--7--7--7--7--7--7--7--7-|
 E|--5--5--5--5--5--5--5--5--5--5--5--5--5--5--5--5-|
 B|-------------------------------------------------|
  |        .  .  .  .  .  .        .  .  .  .  .  .
  |GTR II
 b|-------------------------------------------------|
F#|-------------------------------------------------|
 D|-14-14-------14-14-------12-12-------12-12-------|
 A|-------12-12-------12-12-------12-12-------12-12-|
 E|-------------------------------------------------|
 B|-------------------------------------------------|
           .  .        .  .        .  .        .  .

   GTR I
 b|-------------------------------------------------|
F#|-------------------------------------------------|
 D|-------------------------------------------------|
 A|--3--3--3--3--3--3--3--3--5--5--5--5--5--5--5--5-|
 E|--1--1--1--1--1--1--1--1--3--3--3--3--3--3--3--3-|
 B|-------------------------------------------------|
  |        .  .  .  .  .  .        .  .  .  .  .  .
  |GTR II
 b|-------------------------------------------------|
F#|-------------------------------------------------|
 D|-14-14-------14-14-------10-10--------9--9-------|
 A|-------12-12-------10-10-------10-10-------10-10-|
 E|-------------------------------------------------|
 B|-------------------------------------------------|
           .  .        .  .        .  .        .  .

Pre Chorus

   GTR I,II
 b|-------------------------------------------------|
F#|-------------------------------------------------|
 D|-------------------------------------------------|
 A|--4-----------------------5--------------4-----4-|
 E|--5-----3--5--6--5--3--5-----5--3--5--6--5-----5-|
 B|--2--------------------------------------2-----2-|

   GTR I,II
 b|-------------------------------------------------|
F#|-------------------------------------------------|
 D|-------------------------------------------------|
 A|--------------------------5--------------4-----4-|
 E|--------3--5--6--5--3--5-----5--3--5--6--5-----5-|
 B|-----------------------------------------2-----2-|

   GTR I,II
 b|-------------------------------------------------|
F#|-------------------------------------------------|
 D|-----------------------------------------------3-|
 A|--------------------------5--------------4-----3-|
 E|--------3--5--6--5--3--5-----5--3--5--6--5-----1-|
 B|-----------------------------------------2-------|

   GTR I,II
 b|-------------------------------------------------|
F#|-------------------------------------------------|
 D|-----3--3--3--3--3--3----------------------------|
 A|-----3--3--3--3--3--3--3-----3--3--3--3--3--3--3-|
 E|-----1--1--1--1--1--1--3-----3--3--3--3--3--3--3-|
 B|-----------------------1-----1--1--1--1--1--1--1-|

Chorus

   GTR I
 b|-------------------------------------------------|
F#|-------------------------------------------------|
 D|--7--7--7--7--7--7--7--7--7--7--7--7--7--7--7--7-|
 A|--7--7--7--7--7--7--7--7--7--7--7--7--7--7--7--7-|
 E|--5--5--5--5--5--5--5--5--5--5--5--5--5--5--5--5-|
 B|-------------------------------------------------|
  |
  |GTR II
 b|-------------------------------------------------|
F#|-------------------------------------------------|
 D|-11-11-11-11-11-11-11-11-11-11-11-11-11-11-11-11-|
 A|-------------------------------------------------|
 E|-------------------------------------------------|
 B|-------------------------------------------------|

   GTR I
 b|-------------------------------------------------|
F#|-------------------------------------------------|
 D|--5--5--5--5--5--5--5--5--5--5--5--5--5--5--5--5-|
 A|--5--5--5--5--5--5--5--5--5--5--5--5--5--5--5--5-|
 E|--3--3--3--3--3--3--3--3--3--3--3--3--3--3--3--3-|
 B|-------------------------------------------------|
  |
  |GTR II
 b|-------------------------------------------------|
F#|-------------------------------------------------|
 D|-12-12-12-12-12-12-12-12-12-12-12-12-12-12-12-12-|
 A|-------------------------------------------------|
 E|-------------------------------------------------|
 B|-------------------------------------------------|

   GTR I
 b|-------------------------------------------------|
F#|-------------------------------------------------|
 D|--3--------------3--------------3--3--3--3--3--3-|
 A|--3--------------3--------------3--3--3--3--3--3-|
 E|--1--------------1--------------1--1--1--1--1--1-|
 B|-------------------------------------------------|
  |
  |GTR II
 b|-------------------------------------------------|
F#|-------------------------------------------------|
 D|-10-------------10----10--------9-----------9----|
 A|-------------------------------------10----------|
 E|-------------------------------------------------|
 B|-------------------------------------------------|

   GTR I
 b|-------------------------------------------------|
F#|-------------------------------------------------|
 D|-------------------------------------------------|
 A|--3-----3--------3-----5-----5--5--5--5--5--5--5-|
 E|--3-----3--------3-----5-----5--5--5--5--5--5--5-|
 B|--1-----1--------1-----3-----3--3--3--3--3--3--3-|
  |
  |GTR II
 b|-------------------------------------------------|
F#|-------------------------------------------------|
 D|-10----10-------10----12-12-12-12-12-12-12-12-12-|
 A|-------------------------------------------------|
 E|-------------------------------------------------|
 B|-------------------------------------------------|

   GTR I
 b|-------------------------------------------------|
F#|-------------------------------------------------|
 D|--7--7--7--7--7--7--7--7--7--7--7--7--7--7--7--7-|
 A|--7--7--7--7--7--7--7--7--7--7--7--7--7--7--7--7-|
 E|--5--5--5--5--5--5--5--5--5--5--5--5--5--5--5--5-|
 B|-------------------------------------------------|
  |
  |GTR II
 b|-------------------------------------------------|
F#|-------------------------------------------------|
 D|-11-11-11-11-11-11-11-11-11-11-11-11-11-11-11-11-|
 A|-------------------------------------------------|
 E|-------------------------------------------------|
 B|-------------------------------------------------|

   GTR I
 b|-------------------------------------------------|
F#|-------------------------------------------------|
 D|--5--5--5--5--5--5--5--5--5--5--5--5--5--5--5--5-|
 A|--5--5--5--5--5--5--5--5--5--5--5--5--5--5--5--5-|
 E|--3--3--3--3--3--3--3--3--3--3--3--3--3--3--3--3-|
 B|-------------------------------------------------|
  |
  |GTR II
 b|-------------------------------------------------|
F#|-------------------------------------------------|
 D|-12-12-12-12-12-12-12-12-12-12-12-12-12-12-12-12-|
 A|-------------------------------------------------|
 E|-------------------------------------------------|
 B|-------------------------------------------------|

   GTR I
 b|-------------------------------------------------|
F#|-------------------------------------------------|
 D|--3--------------3--------------3--3--3--3--3--3-|
 A|--3--------------3--------------3--3--3--3--3--3-|
 E|--1--------------1--------------1--1--1--1--1--1-|
 B|-------------------------------------------------|
  |
  |GTR II
 b|-------------------------------------------------|
F#|-------------------------------------------------|
 D|-10-------------10----10--------9-----------9----|
 A|-------------------------------------10----------|
 E|-------------------------------------------------|
 B|-------------------------------------------------|

   GTR I
 b|-------------------------------------------------|
F#|-------------------------------------------------|
 D|-------------------------------------------------|
 A|--3-----3--------3-----5-----5--5--5--5--5--5--5-|
 E|--3-----3--------3-----5-----5--5--5--5--5--5--5-|
 B|--1-----1--------1-----3-----3--3--3--3--3--3--3-|
  |
  |GTR II
 b|-------------------------------------------------|
F#|-------------------------------------------------|
 D|-10----10-------10----12-12-12-12-12-12-12-12-12-|
 A|-------------------------------------------------|
 E|-------------------------------------------------|
 B|-------------------------------------------------|

Post Chorus

   GTR I,II
 b|-------------------------------------------------|
F#|-------------------------------------------------|
 D|-----------------------------------------------3-|
 A|--4-----------------------5--------------4-----3-|
 E|--5-----3--5--6--5--3--5-----5--3--5--6--5-----1-|
 B|--2--------------------------------------2-------|

   GTR I,II
 b|-------------------------------------------------|
F#|-------------------------------------------------|
 D|-----3--3--3--3--3--3----------------------------|
 A|-----3--3--3--3--3--3--3-----3--3--3--3--3--3--3-|
 E|-----1--1--1--1--1--1--3-----3--3--3--3--3--3--3-|
 B|-----------------------1-----1--1--1--1--1--1--1-|

Verse
Pre Chorus

Chorus 2

   GTR I
 b|-------------------------------------------------|
F#|-------------------------------------------------|
 D|--7--7--7--7--7--7--7--7--7--7--7--7--7--7--7--7-|
 A|--7--7--7--7--7--7--7--7--7--7--7--7--7--7--7--7-|
 E|--5--5--5--5--5--5--5--5--5--5--5--5--5--5--5--5-|
 B|-------------------------------------------------|
  |
  |GTR II
 b|-------------------------------------------------|
F#|-------------------------------------------------|
 D|-11-11-11-11-11-11-11-11-11-11-11-11-11-11-11-11-|
 A|-------------------------------------------------|
 E|-------------------------------------------------|
 B|-------------------------------------------------|

   GTR I
 b|-------------------------------------------------|
F#|-------------------------------------------------|
 D|--5--5--5--5--5--5--5--5--5--5--5--5--5--5--5--5-|
 A|--5--5--5--5--5--5--5--5--5--5--5--5--5--5--5--5-|
 E|--3--3--3--3--3--3--3--3--3--3--3--3--3--3--3--3-|
 B|-------------------------------------------------|
  |
  |GTR II
 b|-------------------------------------------------|
F#|-------------------------------------------------|
 D|-12-12-12-12-12-12-12-12-12-12-12-12-12-12-12-12-|
 A|-------------------------------------------------|
 E|-------------------------------------------------|
 B|-------------------------------------------------|

   GTR I
 b|-------------------------------------------------|
F#|-------------------------------------------------|
 D|--3--------------3--------------3--3--3--3--3--3-|
 A|--3--------------3--------------3--3--3--3--3--3-|
 E|--1--------------1--------------1--1--1--1--1--1-|
 B|-------------------------------------------------|
  |
  |GTR II
 b|-------------------------------------------------|
F#|-------------------------------------------------|
 D|-10-------------10----10--------9-----------9----|
 A|-------------------------------------10----------|
 E|-------------------------------------------------|
 B|-------------------------------------------------|

   GTR I
 b|-------------------------------------------------|
F#|-------------------------------------------------|
 D|-------------------------------------------------|
 A|--3-----3--------3-----5-----5--5--5--5--5--5--5-|
 E|--3-----3--------3-----5-----5--5--5--5--5--5--5-|
 B|--1-----1--------1-----3-----3--3--3--3--3--3--3-|
  |
  |GTR II
 b|-------------------------------------------------|
F#|-------------------------------------------------|
 D|-10----10-------10----12-12-12-12-12-12-12-12-12-|
 A|-------------------------------------------------|
 E|-------------------------------------------------|
 B|-------------------------------------------------|

   GTR I
 b|-------------------------------------------------|
F#|-------------------------------------------------|
 D|--7--7--7--7--7--7--7--7--7--7--7--7--7--7--7--7-|
 A|--7--7--7--7--7--7--7--7--7--7--7--7--7--7--7--7-|
 E|--5--5--5--5--5--5--5--5--5--5--5--5--5--5--5--5-|
 B|-------------------------------------------------|
  |
  |GTR II
 b|-------------------------------------------------|
F#|-------------------------------------------------|
 D|-11-11-11-11-11-11-11-11-11-11-11-11-11-11-11-11-|
 A|-------------------------------------------------|
 E|-------------------------------------------------|
 B|-------------------------------------------------|

   GTR I
 b|-------------------------------------------------|
F#|-------------------------------------------------|
 D|--5--5--5--5--5--5--5--5--5--5--5--5--5--5--5--5-|
 A|--5--5--5--5--5--5--5--5--5--5--5--5--5--5--5--5-|
 E|--3--3--3--3--3--3--3--3--3--3--3--3--3--3--3--3-|
 B|-------------------------------------------------|
  |
  |GTR II
 b|-------------------------------------------------|
F#|-------------------------------------------------|
 D|-12-12-12-12-12-12-12-12-12-12-12-12-12-12-12-12-|
 A|-------------------------------------------------|
 E|-------------------------------------------------|
 B|-------------------------------------------------|

   GTR I
 b|-------------------------------------------------|
F#|-------------------------------------------------|
 D|--3--------------3--------------3--3--3--3--3--3-|
 A|--3--------------3--------------3--3--3--3--3--3-|
 E|--1--------------1--------------1--1--1--1--1--1-|
 B|-------------------------------------------------|
  |
  |GTR II
 b|-------------------------------------------------|
F#|-------------------------------------------------|
 D|-10-------------10----10--------9-----------9----|
 A|-------------------------------------10----------|
 E|-------------------------------------------------|
 B|-------------------------------------------------|

   GTR I
 b|-------------------------------------------------|
F#|-------------------------------------------------|
 D|-------------------------------------------------|
 A|--3-----3--------3-----5-----5--5--5--5--5--5--5-|
 E|--3-----3--------3-----5-----5--5--5--5--5--5--5-|
 B|--1-----1--------1-----3-----3--3--3--3--3--3--3-|
  |
  |GTR II
 b|-------------------------------------------------|
F#|-------------------------------------------------|
 D|-10----10-------10----12-12-12-12-12-12-12-12-12-|
 A|-------------------------------------------------|
 E|-------------------------------------------------|
 B|-------------------------------------------------|

   GTR I
 b|-------------------------------------------------|
F#|-------------------------------------------------|
 D|-------------------------------------------------|
 A|--5--5--5--5--5--5--5--5--5--5--5--5--5--5--5--5-|
 E|--5--5--5--5--5--5--5--5--5--5--5--5--5--5--5--5-|
 B|--3--3--3--3--3--3--3--3--3--3--3--3--3--3--3--3-|
  |
  |GTR II
 b|-------------------------------------------------|
F#|-------------------------------------------------|
 D|-12-12-12-12-12-12-12-12-12-12-12-12-12-12-12-12-|
 A|-------------------------------------------------|
 E|-------------------------------------------------|
 B|-------------------------------------------------|

Interlude

   GTR I
 b|-------------------------------------------------|
F#|-------------------------------------------------|
 D|--7--7--7--3--3--3-------------------------------|
 A|--7--7--7--3--3--3--3--3--3--5--5--5--5----------|
 E|--5--5--5--1--1--1--3--3--3--5--5--5--5----------|
 B|--------------------1--1--1--3--3--3--3----------|
  |
  | |--------------------TRM----------------------|
 b|-------------------------------------------------|
F#|-15-15-15-15-15-15-15-15-15-15-15-15-15-15-15-15-|
 D|-------------------------------------------------|
 A|-------------------------------------------------|
 E|-------------------------------------------------|
 B|-------------------------------------------------|

   GTR I
 b|-------------------------------------------------|
F#|-------------------------------------------------|
 D|--7--7--7--3--3--3-------------------------------|
 A|--7--7--7--3--3--3--3--3--3--5--5--5--5-----3/-5-|
 E|--5--5--5--1--1--1--3--3--3--5--5--5--5-----3/-5-|
 B|--------------------1--1--1--3--3--3--3--0--1/-3-|
  |
  | |--------------------TRM----------------------|
 b|-------------------------------------------------|
F#|-15-15-15-15-15-15-15-15-15-15-15-15-15-15-15-15-|
 D|-------------------------------------------------|
 A|-------------------------------------------------|
 E|-------------------------------------------------|
 B|-------------------------------------------------|

   GTR I
 b|-------------------------------------------------|
F#|-------------------------------------------------|
 D|--7--7--7--3--3--3-------------------------------|
 A|--7--7--7--3--3--3--3--3--3--5--5--5--5----------|
 E|--5--5--5--1--1--1--3--3--3--5--5--5--5----------|
 B|--------------------1--1--1--3--3--3--3----------|
  |
  | |--------------------TRM----------------------|
 b|-------------------------------------------------|
F#|-18-18-18-18-18-18-18-18-18-18-18-18-18-18-18-18-|
 D|-------------------------------------------------|
 A|-------------------------------------------------|
 E|-------------------------------------------------|
 B|-------------------------------------------------|

   GTR I
 b|-------------------------------------------------|
F#|-------------------------------------------------|
 D|--7--7--7--3--3--3-------------------------------|
 A|--7--7--7--3--3--3--3--3--3--5--5--5--5-----3/-5-|
 E|--5--5--5--1--1--1--3--3--3--5--5--5--5-----3/-5-|
 B|--------------------1--1--1--3--3--3--3--0--1/-3-|
  |
  | |--------------------TRM----------------------|
 b|-------------------------------------------------|
F#|-18-18-18-18-18-18-18-18-18-18-18-18-18-18-18-18-|
 D|-------------------------------------------------|
 A|-------------------------------------------------|
 E|-------------------------------------------------|
 B|-------------------------------------------------|

   GTR I
 b|-------------------------------------------------|
F#|-------------------------------------------------|
 D|--7--7--7--3--3--3-------------------------------|
 A|--7--7--7--3--3--3--3--3--3--5--5--5--5--5--5--5-|
 E|--5--5--5--1--1--1--3--3--3--5--5--5--5--5--5--5-|
 B|--------------------1--1--1--3--3--3--3--3--3--3-|
  |
  | |--------------------TRM----------------------|
 b|-17-17-17-17-17-17-17-17-17-17-17-17-17-17-17-17-|
F#|-------------------------------------------------|
 D|-------------------------------------------------|
 A|-------------------------------------------------|
 E|-------------------------------------------------|
 B|-------------------------------------------------|

   GTR I
 b|-------------------------------------------------|
F#|-------------------------------------------------|
 D|--7--7--7--3--3--3-------------------------------|
 A|--7--7--7--3--3--3--3--3--3--5--5--5--5-----3/-5-|
 E|--5--5--5--1--1--1--3--3--3--5--5--5--5-----3/-5-|
 B|--------------------1--1--1--3--3--3--3--0--1/-3-|
  |
  | |--------------------TRM----------------------|
 b|-17-17-17-17-17-17-17-17-17-17-17-17-17-17-17-17-|
F#|-------------------------------------------------|
 D|-------------------------------------------------|
 A|-------------------------------------------------|
 E|-------------------------------------------------|
 B|-------------------------------------------------|

   GTR I
 b|-------------------------------------------------|
F#|-------------------------------------------------|
 D|--7--7--7--3--3--3-------------------------------|
 A|--7--7--7--3--3--3--3--3--3--5--5--5--5--5--5--5-|
 E|--5--5--5--1--1--1--3--3--3--5--5--5--5--5--5--5-|
 B|--------------------1--1--1--3--3--3--3--3--3--3-|
  |
  | |--------------------TRM----------------------|
 b|-20-20-20-20-20-20-20-20-20-20-20-20-20-20-20-20-|
F#|-------------------------------------------------|
 D|-------------------------------------------------|
 A|-------------------------------------------------|
 E|-------------------------------------------------|
 B|-------------------------------------------------|

   GTR I
 b|-------------------------------------------------|
F#|-------------------------------------------------|
 D|-------------------------------------------------|
 A|--3-----3--------3-----5-----5--5--5--5--5--5--5-|
 E|--3-----3--------3-----5-----5--5--5--5--5--5--5-|
 B|--1-----1--------1-----3-----3--3--3--3--3--3--3-|
  |
  | |--------------------TRM----------------------|
 b|-22-22-22-22-22-22-22-22-22-22-22-22-22-22-22-22-|
F#|-------------------------------------------------|
 D|-------------------------------------------------|
 A|-------------------------------------------------|
 E|-------------------------------------------------|
 B|-------------------------------------------------|

   GTR I
 b|-------------------------------------------------|
F#|-------------------------------------------------|
 D|--5--5--5--5--5--5--5--5--5--5--5--5--5--5--5--5-|
 A|--5--5--5--5--5--5--5--5--5--5--5--5--5--5--5--5-|
 E|--3--3--3--3--3--3--3--3--3--3--3--3--3--3--3--3-|
 B|-------------------------------------------------|
  |
  | |--------------------TRM----------------------|
 b|-22-22-22-22-22-22-22-22-22-22-22-22-22-22-22-22-|
F#|-------------------------------------------------|
 D|-------------------------------------------------|
 A|-------------------------------------------------|
 E|-------------------------------------------------|
 B|-------------------------------------------------|

Bridge

   GTR II
 b|-------------------------------------------------|
F#|-------------------------------------------------|
 D|-------------------------------------------------|
 A|--------------5-----------------------5----------|
 E|--6--5--3--5-----5--3--5--6--5--3--5-----5--3--5-|
 B|-------------------------------------------------|

   GTR II
 b|-------------------------------------------------|
F#|-------------------------------------------------|
 D|-------------------------------------------------|
 A|--------------5-----------------------5----------|
 E|--6--5--3--5-----5--3--5--6--5--3--5-----5--3--5-|
 B|-------------------------------------------------|

   GTR I
 b|-------------------------------------------------|
F#|-------------------------------------------------|
 D|-------------------------------------------------|
 A|-------------------------------------------------|
 E|--Pickslide--------------------------------------|
 B|--Pickslide--------------------------------------|
  |
  |GTR II
 b|-------------------------------------------------|
F#|-------------------------------------------------|
 D|-------------------------------------------------|
 A|--------------5-----------------------5----------|
 E|--6--5--3--5-----5--3--5--6--5--3--5-----5--3--5-|
 B|-------------------------------------------------|

   GTR I
 b|-------------------------------------------------|
F#|-------------------------------------------------|
 D|-------------------------------------------------|
 A|-------------------------------------------------|
 E|-------------------------------------------------|
 B|-------------------------------------------------|
  |
  |GTR II
 b|-------------------------------------------------|
F#|-------------------------------------------------|
 D|-------------------------------------------------|
 A|--------------5-----------------------5----------|
 E|--6--5--3--5-----5--3--5--6--5--3--5-------------|
 B|-------------------------------------------------|

Pre Chorus
Chorus

Outro

   GTR I,II
 b|-------------------------------------------------|
F#|-------------------------------------------------|
 D|-------------------------------------------------|
 A|--4-----------------------5--------------4-----4-|
 E|--5-----3--5--6--5--3--5-----5--3--5--6--5-----5-|
 B|--2--------------------------------------2-----2-|

   GTR I,II
 b|-------------------------------------------------|
F#|-------------------------------------------------|
 D|-------------------------------------------------|
 A|--------------------------5--------------4-----4-|
 E|--------3--5--6--5--3--5-----5--3--5--6--5-----5-|
 B|-----------------------------------------2-----2-|

   GTR I,II
 b|-------------------------------------------------|
F#|-------------------------------------------------|
 D|-----------------------------------------------3-|
 A|--------------------------5--------------4-----3-|
 E|--------3--5--6--5--3--5-----5--3--5--6--5-----1-|
 B|-----------------------------------------2-------|

   GTR I,II
 b|-------------------------------------------------|
F#|-------------------------------------------------|
 D|-----3--3--3--3--3--3----------------------------|
 A|-----3--3--3--3--3--3--3-----3--3--3--3--3--3--3-|
 E|-----1--1--1--1--1--1--3-----3--3--3--3--3--3--3-|
 B|-----------------------1-----1--1--1--1--1--1--1-|

   GTR I,II
 b|-------------------------------------------------|
F#|-------------------------------------------------|
 D|--7----------------------------------------------|
 A|--7----------------------------------------------|
 E|--5----------------------------------------------|
 B|-------------------------------------------------|


| b  bend
| r  release bend
|trp triplet
|PH. pinch harmonic
|fbk feedback
| .  palm-mute
| /  slide up
| \  slide down
| h  hammer-on
| p  pull-off
| ~  vibrato
|(7) harmonic
| x  Mute note
===============================================================================
            
Submit corrections

comments powered by Disqus
↑ Back to top | Trapt Tabs for Sound Off. Lyrics for acoustic guitar and electric guitar. 1 Tablatures and chords are parodies/interpretations of the original songs. You may use it for private study, scholarship, research or language learning purposes only