» » »

Sound Off Tabs (ver.1)

Artists:  A B C D E F G H I J K L M N O P Q R S T U V W X Y Z # 

Sound Off Tabs (ver.1)

Trapt
Rating:
5/5 (1 vote)

Hard to play? Try these video lessons and learn fast.
                Hey guys! What's up? This is Robb from TRAPT. I thought I'd get in here and give you all
right way to play Sound Off. I've never tabbed songs out this way (on computers) and
does this take a while to do. Anyways, here are the main parts. Ill finish it up if I 
enough responses from this. The original recording is played with a baritone guitar tuned
B Standard. This is tabbed out for standard tuning.

Tuning: Standard

Introduction:

E|----------------------------|
B|----------------------------|
G|----------------------------|
D|----------------------------|  3x
A|4--------------5---------4--|
E|5--3-5-6-5-3-5---5-3-5-6-5--|

E|------------------|
B|------------------|
G|-------5--5--5555-|
D|3-3-3335--5--5555-|
A|3-3-3333--3--3333-|
E|1-1-1113--3--3333-|

Verse:
E|---------------------------------|
B|-5-5-----5-5-----3-3-----3-3-----|
G|-----2-2-----2-2-----2-2-----2-2-|
D|---------------------------------|
A|---------------------------------|
E|---------------------------------|
PM ...............................................

E|---------------------------------|
B|-5-5-----5-5-----1-1-----0-0-----|
G|-----2-2-----0-0-----0-0-----0-0-|
D|---------------------------------|
A|---------------------------------|
E|---------------------------------|
PM .................................................

Chorus:
E|---------------------------------------|
B|---------------------------------------|
G|-----------------------5------7--------|
D|-7-------5-------3-----5------7--------|
A|-7-(16x)-5-(16x)-3-(*)-3-(*)--5-(*)----|
E|-5-------3-------1-----3------5--------|
(*) best to listen to recording for rhythms
They’re different each time through the choruses.

Chorus:(GTR 2)
E|--------------------------------------------------|
B|--------------------------------------------------|
G|-6--------7----------5--5---5-4------5------7-----|
D|--------------------------------5----5------7-----|
A|-4--------5----------3--3---3--------3-(*)--5-(*)-|
E|-5--------3----------1--1---1--------3------5-----|
  (fast tremolo Strumming)   (Let ring)
            
Hard to play? Try these video lessons and learn fast. | Correct




comments powered by Disqus
↑ Back to top | Tablatures and chords are parodies/interpretations of the original songs. You may use it for private study, scholarship, research or language learning purposes only