» » »

Trapt, Skin Deep Tabs (ver.2)

Artists:  A B C D E F G H I J K L M N O P Q R S T U V W X Y Z # 

Skin Deep Tabs (ver.2)

Trapt Tabs
 Rating:
4/5 (4 votes)
Skin Deep lessons Tabs too difficult? Try these video lessons and learn fast
1
                Tuning: D

Key: 
8~ = Hold Out
(11/13) = Played w/o strumming with reverb

Intro/Verse: (Sounds best finger style with distortion and reverb)
|------------------------------------|
|--8~---11/13(11/13)---8~---4/1(4/1)-|
|--x-------------------x-------------|
|-10~-----------------10~------------| x6
|------------------------------------|
|------------------------------------|

Pre Chorus:
|-------------------------------------------|
|-------------------------------------------|
|-------------------------------------------|
|-8-6-6--8-88-88--8-88-88--8-88-88--8-88-88-|x1
|-8-6-6--6-66-66--6-66-66--6-66-66--6-66-66-|
|-8-6-6--6-66-66--6-66-66--6-66-66--6-66-66-|
  ^^^^^(Sounds almost like quick pickup chords)
 
Chorus: x1
|-------------|-------------|---------|---------|
|-------------|-------------|---------|---------|
|-------------|-------------|---------|---------|
|-10-10-10-10-|-13-13-13-13-|-0-0-0-0-|-3-3-3-3-|
|-10-10-10-10-|-13-13-13-13-|-0-0-0-0-|-3-3-3-3-|
|-10-10-10-10-|-13-13-13-13-|-0-0-0-0-|-3-3-3-3-|

Cont.
|-------------|-------------|-------------|---------|
|-------------|-------------|-------------|---------|
|-------------|-------------|-------------|---------|
|-10-10-10-10-|-13-13-13-13-|-15-15-15-15-|-3-3-3-3-|
|-10-10-10-10-|-13-13-13-13-|-15-15-15-15-|-3-3-3-3-|
|-10-10-10-10-|-13-13-13-13-|-15-15-15-15-|-3-3-3-3-|

Verse: x5
Chorus: x2

Bridge: There is another guitar in this part
that sounds as if it is being strummed on an 
open string. However, I have never figured it
out. If you do, please comment. :->
|-------------|------------|--------|--------|
|-------------|------------|--------|--------|
|-12-12-1212--|-10-10-1010-|-8-8-88-|-7-7-77-|
|-------------|------------|--------|--------| x2
|-------------|------------|--------|--------|
|-------------|------------|--------|--------|

Cont.
|---------------------------------------------|
|---------------------------------------------|
|---------------------------------------------|
|-10-1010--10-1010--10-1010--10-1010-10/13/12-|x1
|-10-1010--10-1010--10-1010--10-1010-10/13/12-|
|-10-1010--10-1010--10-1010--10-1010-10/13/12-|

Chorus:(x2)Same as last time, except this is 
also in the background.
|-----------------------------------------|
|-9~--11/13~--9~--4/1--9~--11/13~-13^^^^(release bend slowly)
|-----------------------------------------|
|-----------------------------------------|
|-----------------------------------------|
|-----------------------------------------|

Ending:
|------------|------------|
|------------|------------|
|------------|---------11-|
|-0-00-0-0-0-|0-00-0-0----| x2
|-0-00-0-0-0-|0-00-0-0----|
|-0-00-0-0-0-|0-00-0-0----|
            
Submit corrections

comments powered by Disqus
↑ Back to top | Trapt Tabs for Skin Deep. Lyrics for acoustic guitar and electric guitar. 1 Tablatures and chords are parodies/interpretations of the original songs. You may use it for private study, scholarship, research or language learning purposes only