» » »

Trapt, Skin Deep Tabs (ver.1)

Artists:  A B C D E F G H I J K L M N O P Q R S T U V W X Y Z # 

Skin Deep Tabs (ver.1)

Trapt Tabs
 Rating:
4.4/5 (7 votes)
Skin Deep lessons Tabs too difficult? Try these video lessons and learn fast
                ----------------------------------------------------------------------------
-----------------------------------------------------------------------------


Hey guys, this is my first tab. This is the way I play the song.  It sounds good to me.
You need to see these guys live, they are awesome! Have fun.


Tuning: Drop Db (Db Ab Db Gb Bb Eb)

INTRO/VERSE 1  (with slight echo)
eb|--------------------------|--------------------------|
Bb|----9-~ ~------12/14------|----9-~ ~------5\2--------|
Gb|--------------------------|--------------------------|   6x
Db|--------------------------|--------------------------|
Ab|--------------------------|--------------------------|
Db|--------------------------|--------------------------|

PRE-CHORUS
eb|---------------------------------------------------|
Bb|---------------------------------------------------|
Gb|---------------------------------------------------|
Db|---7-7--7-7----7-7--7-7----7-7--7-7----7-7--7-7----|
Ab|---7-7--7-7----7-7--7-7----7-7--7-7----7-7--7-7----|
Db|---7-7--7-7----7-7--7-7----7-7--7-7----7-7--7-7----|

CHORUS       (Listen to song for pattern and timing)
eb|-------------------------|---------------------------|
Bb|-------------------------|---------------------------|
Gb|-------------------------|----------------11---------|
Db|---11----14----1----4----|----11----14----11----4----|
Ab|---11----14----1----4----|----11----14----9-----4----|
Db|---11----14----1----4----|----11----14----------4----|

VERSE 2    (with slight echo)
eb|--------------------------|--------------------------|
Bb|----9-~ ~------12/14------|----9-~ ~------5\2--------|
Gb|--------------------------|--------------------------|   5x
Db|--------------------------|--------------------------|
Ab|--------------------------|--------------------------|
Db|--------------------------|--------------------------|

PRE-CHORUS
eb|---------------------------------------------------|
Bb|---------------------------------------------------|
Gb|---------------------------------------------------|
Db|---7-7--7-7----7-7--7-7----7-7--7-7----7-7--7-7----|
Ab|---7-7--7-7----7-7--7-7----7-7--7-7----7-7--7-7----|
Db|---7-7--7-7----7-7--7-7----7-7--7-7----7-7--7-7----|

CHORUS
eb|-------------------------|---------------------------|
Bb|-------------------------|---------------------------|
Gb|-------------------------|----------------11---------|   2x
Db|---11----14----1----4----|----11----14----11----4----|
Ab|---11----14----1----4----|----11----14----9-----4----|
Db|---11----14----1----4----|----11----14----------4----|

BRIDGE   (Listen timing and picking)
eb|-----------------------------------|
Bb|-----------------------------------|
Gb|---13------11------9-------8-------|    2x
Db|-----------------------------------|
Ab|-----------------------------------|
Db|-----------------------------------|

ENDING BRIDGE (Listen for pattern)
eb|-----------------------------------|
Bb|-----------------------------------|
Gb|-----------------------------------|
Db|---11--11--11--11--11/14\13~-------|
Ab|---11--11--11--11--11/14\13~-------|
Db|---11--11--11--11--11/14\13~-------|

CHORUS
eb|-------------------------|---------------------------|
Bb|-------------------------|---------------------------|
Gb|-------------------------|----------------11---------|   2x
Db|---11----14----1----4----|----11----14----11----4----|
Ab|---11----14----1----4----|----11----14----9-----4----|
Db|---11----14----1----4----|----11----14----------4----|

ENDING
eb|---------------------------|
Bb|---------------------------|
Gb|---------------------------|
Db|---11--11--11--11----------|
Ab|---11--11--11--11----------|
Db|---11--11--11--11----------|


| /  slide up
| \  slide down
| h  hammer-on
| p  pull-off
| ~  vibrato
| +  harmonic
| x  Mute note
=============================================================================
            
Submit corrections

comments powered by Disqus
↑ Back to top | Trapt Tabs for Skin Deep. Lyrics for acoustic guitar and electric guitar. Tablatures and chords are parodies/interpretations of the original songs. You may use it for private study, scholarship, research or language learning purposes only