» » »

Trapt, Ready When You Are Bass tabs (ver.1)

Artists:  A B C D E F G H I J K L M N O P Q R S T U V W X Y Z # 

Ready When You Are Bass tabs (ver.1)

Trapt Tabs
 Rating:
4/5 (4 votes)
Ready When You Are lessons Tabs too difficult? Try these video lessons and learn fast
                --------------------------------------------------------------------------------
--------------------------------------------------------------------------------


Tuning: Standard (EADG)

Rest 2 Measures

Verse

G|----------------|----------------|----------------|----------------|
D|----------------|----------------|----------------|----------------|
A|--------0------/|4---------------|--------0------/|4---------------|
E|0---------------|------------2---|0---------------|------------2---|

G|----------------|----------------|
D|----------------|----------------|
A|--------0------/|4---------------|
E|0---------------|----------------|

Pre-Chorus

G|----------------|----------------|----------------|------------121-|
D|----------------|----------------|----------------|-----------2---2|
A|2-------4-------|0---------------|2-------4-------|0---------------|
E|----------------|----------------|----------------|----------------|

G|----------------|----------------|----------------|----------------|
D|----------------|----------------|----------------|----------------|
A|2-------4-------|0---------------|2-------4-------|0---------------|
E|----------------|----------------|----------------|-----------7/12\|

Chorus

G|----------------|----------------|----------------|----------------|
D|----------------|----------------|----------------|----------------|
A|----------------|0--------00-----|4--------44-----|0--00--02--22---|
E|0--------00-----|----------------|----------------|----------------|

G|----------------|----------------|----------------|----------------|
D|----------------|----------------|----------------|----------------|
A|----------------|0--------00-----|4--------44-----|0------02-2-----|
E|0--------00-----|----------------|----------------|----------------|
							     .
Verse

G|----------------|----------------|
D|----------------|----------------|
A|--------0------/|4---------------|  x 4
E|0---------------|------------2---|

G|----------------|----------------|
D|----------------|----------------|
A|--------0------/|4---------------|
E|0---------------|----------------|

Pre-Chorus

G|----------------|------------121-|----------------|----------------|
D|----------------|-----------2---2|----------------|----------------|
A|2-------4-------|0---------------|2-------4-------|0---------------|
E|----------------|----------------|----------------|----------------|

G|----------------|----------------|----------------|----------------|
D|----------------|----------------|----------------|----------------|
A|2-------4-------|0---------------|2-------4-------|0---------------|
E|----------------|----------------|----------------|-----------12\--|

Chorus

Bridge

G|----------------|----------------|----------------|----------------|
D|----------------|----------------|----------------|----------------|
A|0---------------|4---------------|0---------------|4-------2-------|
E|----------------|----------------|----------------|----------------|

G|----------------|----------------|----------------|----------------|
D|----------------|----------------|----------------|----------------|
A|0000000000000000|4444444422222222|----------------|----------------|
E|----------------|----------------|0(let ring)-----|----------------|

Final Chorus

G|----------------|----------------|----------------|----------------|
D|----------------|----------------|----------------|----------------|
A|----------------|----------------|----------------|----------------|
E|----------------|----------------|----------------|-----------12\--|

G|----------------|----------------|----------------|----------------|
D|----------------|----------------|----------------|----------------|
A|----------------|0--------00-----|4--------44-----|0--00--02--22---| x 4
E|0--------00-----|----------------|----------------|----------------|

End

G|----------------|
D|----------------|
A|----------------|
E|0~--------------|


| /  slide up
| \  slide down
| h  hammer-on
| p  pull-off
| ~  hold note
|( ) ghost note
| +  harmonic
| x  mute note
================================================================================
            
Submit corrections

comments powered by Disqus
↑ Back to top | Trapt Bass for Ready When You Are. Lyrics for acoustic guitar and electric guitar. Tablatures and chords are parodies/interpretations of the original songs. You may use it for private study, scholarship, research or language learning purposes only