» » »

Ready When You Are Tabs (ver.1)

Artists:  A B C D E F G H I J K L M N O P Q R S T U V W X Y Z # 

Ready When You Are Tabs (ver.1)

Trapt
Rating:
4/5 (4 votes)

Hard to play? Try these video lessons and learn fast.
                Album:Only Through the Pain

For any comments,questions or suggestions,just post a comment or PM me.Pilipino Rules!!

Gtr.Legends:
/ - slide
. - palm muting
~ - let it ring

Gtr.Tuning:Standard(Normal)

Intro:
e|-0---0----0---0------0---0-----0---0----0---0-----0---0---0---0----0---0---|
B|---0--------0----------0---------0--------0---------0-------0--------0-----|
G|---------------------------------------------------------------------------|
D|---------------------------------------------------------------------------|
A|---------------------0-------0----------4-------4---------4------4---------|
E|-0------0------------------------------------------------------------------|

Verse 1:Are ou having...
Play Intro 4x:

Pre-Chorus:Another game of charades...
e|-----0---0----------0---0----------0---0--------0---0---|
B|---0---0-0--------0---0-0--------0---0-0------0---0-0---|
G|--------------------------------------------------------| 4x
D|--------------------------------------------------------|
A|-2~----------4~-----------0~----------------0~----------|
E|--------------------------------------------------------|

Chorus:Calm down,don't take it...
e|----------------------------------------------------------|
B|----------------------------------------------------------|
G|-9999------6666--------------9999------6666---------9~----|
D|-9999-7777-6666-7777-9999----9999-7777-6666-7777-99-9~----|
A|-7777-7777-4444-7777-9999----7777-7777-4444-7777-99-7~----|
E|------5555------5555-7777---------5555------5555-77-------|

Pre-Verse 2:
e|-------------------------------------------------------|
B|----1212-12-------1212-12-----1212-12-----1212-12-99---|
G|-99------------99-----------99---------99--------------|
D|-------------------------------------------------------|
A|-------------------------------------------------------|
E|-------------------------------------------------------|
   ..  ...       .. ...       .. ...     .. ....

Verse 2:Are you having trouble...
Play Verse 1

Repeat Pre-Chorus:

Repeat Chorus:

Bridge prt.1:I want to know...
Gtr.1
e|-------------------------------------------------------------------|
B|------------------------------------7---7---7---7--9---9---9---9---|
G|--9-----9-----9-----9-----9-----9---9-9-9-9-9-9-9--9-9-9-9-9-9-9---| 4x
D|-11-11-11-11-11-11-11-11-11-11-11----------------------------------|
A|-------------------------------------------------------------------|
E|-------------------------------------------------------------------|
   .. .. .. .. .. .. .. .. .. .. ..   . . . . . . .  . . . . . . .

Gtr.2 Enters:Too soon to take...
e|--------------------------------------------------------------------------------------|
B|-------------------------------------9------------------------------------------------|
G|------9----9-11-9----------9----9--11------------9----9-11-9---------9---------9------|
D|-7/11---11--------11--7/11---11-------------7/11---11--------11---11---11---11---11---|
A|--------------------------------------------------------------------------------------|
E|--------------------------------------------------------------------------------------|

-----------------------------------------------------------------------------|
---------------------------------------9------------------------9999---------|
------9----9-11-9-----------9----9--11-----------9----9-11-9---------11-9~---|
-7/11---11--------11---7/11---11------------7/11---11--------11--------------|
-----------------------------------------------------------------------------|
-----------------------------------------------------------------------------|

Bridge prt.2:Calm down,don't take it...
e|-0~---0~---0~---0~---0~---|
B|-0~---0~---0~---0~---0~---|
G|-1~---2~---6~---2~---4~---|
D|-2~---2~---6~---2~---4~---|
A|-2~---0~---4~---0~---2~---|
E|-0~-----------------------|

Outro Chorus:
e|-00000--00000-00000-00000-000---|
B|-00000--00000-00000-00000-000---|
G|-11111--22222-66666-22222-444---| 4x
D|-22222--22222-66666-22222-444---|
A|-22222--00000-44444-00000-222---|
E|-00000--------------------------|

Last Chord:
e|-0~---|
B|-0~---|
G|-1~---|
D|-2~---|
A|-2~---|
E|-0~---|

End...


Ready When You Are Lyrics:

Verse 1:
Are you having trouble keeping up?
Seeing this thing through
I want to know who you're running from
Me or you?
You're too confused to open up
Feel the way I do
I want to know who you're thinking of
'Cause I really have no clue

Pre-Chorus:
Another game of charades
Don't you know everybody plays?
I don't want to lose to you that way
Maybe we'll be different this time around
Maybe we'll be different, I don't know
Don't want to strangle this
So I'm holding back for now

Chorus:
Calm down, don't take it too far
I know only time can heal scars
So I'm ready when you are (when you are)
I'm ready when you are
Don't want any false starts
I can do without the time apart
So I'm ready when you are (when you are)
I'm ready when you are

Verse 2:
Are you having trouble keeping up?
You know that I will wait
I wonder if it's good enough to make you stay
You're too confused to open up
You don't know what to say
Well, you can tell me if you think it's love
I won't be far away

Repeat Pre-Chorus:

Calm down, don't take it too far
I know only time can heal scars
So I'm ready when you are (when you are)
I'm ready when you are
Tied down, don't want any false starts
I can do without the time apart
So I'm ready when you are (when you are)
I'm ready when you are

Bridge prt.1:
I want to know if you're thinking of me
I'll be counting the hours even though I know I'm free
Too soon to take a chance
No more questions left to ask
I could be anything, but the one thing
I'm not sure you want to be

Bridge prt.2:
Calm down, don't take it too far
I know only time can heal scars
So I'm ready when you are (when you are)
I'm ready when you are
Don't want any false starts
I can do without the time apart
I'm ready when you are (when you are)
I'm ready when you are

Calm down, don't take it too far
I know only time can heal scars
So I'm ready when you are (when you are)
I'm ready when you are
Calm down, don't want any false starts
I can do without the time apart
So I'm ready when you are (when you are)
I'm ready when you are

Calm down, I'm ready when you are
Calm down, I'm ready when you are
Calm down, I'm ready when you are
Calm down, I'm ready when you are
            
Hard to play? Try these video lessons and learn fast. | Correct




comments powered by Disqus
↑ Back to top | Tablatures and chords are parodies/interpretations of the original songs. You may use it for private study, scholarship, research or language learning purposes only