» » »

Trapt, Ready When You Are Tabs (ver.2)

Artists:  A B C D E F G H I J K L M N O P Q R S T U V W X Y Z # 

Ready When You Are Tabs (ver.2)

Trapt Tabs
Rating:
4/5 (4 votes)
Ready When You Are lessons Tabs too difficult? Try these video lessons and learn fast
                TRAPT- READY WHEN YOU ARE
'ONLY THROUGH THE PAIN'

6/20/08

This song is 100% accurate.   If you listen closely, you can hear can extra bass note in 
intro/verse.
I played this song without that extra bass note, and it sounded good, but not perfect.  
wasn't until I spent
nearly an hour tryin to play it exactly and finally got it! I hope you enjoy my tab, and 
you find anything wrong
with it, go ahead and comment or e-mail me!

The background guitar during the 2nd chorus and last chorus was the hardest to tab out 
of the lack of emphasis it had, but I finally got it!


e|---------------------------------------------------------------------|
B|--5---5---5---5----5---5---5---5---5---5---5---5----5---5---5---5----|
G|----4-------4---4----4-------4---4---4-------4---4----4-------4---4--|
D|---------------------------------------------------------------------|
A|-------------------0-----0---------4-----4----------4-----4----------|
E|--0-----0------------------------------------------------------------| INTRO X1


e|---------------------------------------------------------------------|
B|--5---5---5---5----5---5---5---5---5---5---5---5----5---5---5---5----|
G|----4-------4---4----4-------4---4---4-------4---4----4-------4---4--|
D|---------------------------------------------------------------------|
A|-------------------0-----0---------4-----4----------4-----4----------|
E|--0-----0------------------------------------------------------------| VERSE X4

       "Are you having trouble keeping up, seeing this through..."
       "I want to know who you're running from Me or you..."
       "You're too confused to open up Feel the way I do..."
  "I want to know who you're thinking of Cause I really have no clue..."

e|--------77-7-|                    e|--------77------------|
B|------7------|                    B|------7---99*-let ring|
G|----9--------| X3                 G|----9-----------------|
D|--9----------| PLAY DURING VERSE  D|--9-------------------| THEN PLAY THIS
A|-------------| SLIGHT PALM MUTE   A|----------------------| ON FOURTH TIME
E|-------------| DOWNSTROKES ONLY   E|----------------------|

e|-----0-------0----0-------0-------0---------|               e|---------|
B|-----0---0---0------0-----2-------2---2-----|               B|-2-------|
G|-----------4----4-------------2---------2---| PRE-CHORUS    G|-2-------| STRUM
D|---4---4----------------2---2---2---2-------|  X4           D|-0------ | END OF PRE-CHORUS
A|-2--------------------0---------------------|               A|---------|
E|--------------------------------------------|               E|---------|


e|-0-0-00-0--0-0-00-0--0-0-00-0---00-0--00-0------|
B|-0-0-00-0--2-2-22-2--0-0-00-0---22-2--00-0------|
G|-4-4-44-4--2-2-22-2--6-6-66-6---22-2--44-4------| CHORUS X2
D|-4-4-22-4--2-2-22-2--6-6-66-6---22-2--44-4------| (find strumming pattern)
A|-2-2-22-2--0-0-00-0--4-4-44-4---00-0--22-2------|
E|------------------------------------------------|

e|---------------------------------------------------------------------|
B|--5---5---5---5----5---5---5---5---5---5---5---5----5---5---5---5----|
G|----4-------4---4----4-------4---4---4-------4---4----4-------4---4--|
D|---------------------------------------------------------------------| Post chorus X1
A|-------------------0-----0---------4-----4----------4-----4----------|
E|--0-----0------------------------------------------------------------|

e|--------77-7-|    e|--------77------------|
B|------7------|    B|------7---99*-let ring|
G|----9--------| X3 G|----9-----------------|
D|--9----------|    D|--9-------------------| THEN PLAY THIS
A|-------------|    A|----------------------| ON FOURTH TIME
E|-------------|    E|----------------------|


e|---------------------------------------------------------------------|
B|--5---5---5---5----5---5---5---5---5---5---5---5----5---5---5---5----|
G|----4-------4---4----4-------4---4---4-------4---4----4-------4---4--|
D|---------------------------------------------------------------------|
A|-------------------0-----0---------4-----4----------4-----4----------|
E|--0-----0------------------------------------------------------------| VERSE 2 X4
   "Are you having trouble keeping up You know that I will wait"
         "I wonder if it's good enough To make you stay"
   "You're too confused to open up You don't know what to say"
   "Well you can tell me if you think it's love I won't be far away"

e|--------77-7-|                    e|--------77------------|
B|------7------|                    B|------7---99*-let ring|
G|----9--------| X3                 G|----9-----------------|
D|--9----------| PLAY DURING VERSE  D|--9-------------------| THEN PLAY THIS
A|-------------| SLIGHT PALM MUTE   A|----------------------| ON FOURTH TIME
E|-------------| DOWNSTROKES ONLY   E|----------------------|

e|-----0-------0----0-------0-------0---------|               e|---------|
B|-----0---0---0------0-----2-------2---2-----|               B|-2-------|
G|-----------4----4-------------2---------2---| PRE-CHORUS    G|-2-------| STRUM
D|---4---4----------------2---2---2---2-------|  X4           D|-0------ | END OF PRE-CHORUS
A|-2--------------------0---------------------|               A|---------|
E|--------------------------------------------|               E|---------|


e|-0-0-00-0--0-0-00-0--0-0-00-0---00-0--00-0-----|
B|-0-0-00-0--2-2-22-2--0-0-00-0---22-2--00-0-----|
G|-4-4-44-4--2-2-22-2--6-6-66-6---22-2--44-4-----| CHORUS  X2
D|-4-4-22-4--2-2-22-2--6-6-66-6---22-2--44-4-----|
A|-2-2-22-2--0-0-00-0--4-4-44-4---00-0--22-2-----|
E|-----------------------------------------------|


Background guitar during 2nd chorus X2
e|----------------------------------------------------------------------------|
B|----------------------------------------------------------------------------|
G|-13-11-9-9h11-11p9-11p9-11p9----13p11-13p11-13-11----11-11p9-11p9-11p9------|
D|-----------------------------11-------------------14-------------------11---|
A|----------------------------------------------------------------------------|
E|----------------------------------------------------------------------------|

e|-----------------------------------------------------------------------------------|
B|-----------------------------------------------------------------------------------|
G|-13p11-13p11-13-11----11-11p9-11p9-11p9----13p11-13p11-13-11--11-11p9-11p9-11p9----|
D|-------------------14-------------------11------------------14------------------11-|
A|-----------------------------------------------------------------------------------|
E|-----------------------------------------------------------------------------------|


e|------------------------|
B|---------9------9-------|
G|-9-9-X8--8---X4-9---X4--| BRIDGE X2
D|---11------11-----11----| PALM MUTED WITH SPECIAL EFFECT
A|------------------------| For the 9-9-11 chord, Robb lays off the palm mute
E|------------------------|  for the 9 note on the B string just a little.

...then

e|-------------------------------------------|
B|-------------------------------------------|
G|-------------------------------------------|
D|----------11-------------------11-11/13~---|
A|-11/14-14----14-11----11/14-14-------------|
E|-------------------------------------------|

e|-------------------------------------------|
B|-------------------------------------------|
G|-------------------------------------------|
D|----------11-------------------11----------|
A|-11/14-14----14-11----11/14-14----14-11----|
E|-------------------------------------------|

e|-------------------------------------------|
B|-------------------------------------------|
G|-------------------------------------------|
D|----------11-------------------11-11/13~---|
A|-11/14-14----14-11----11/14-14-------------|
E|-------------------------------------------|

e|-------------------------------------------|
B|-------------------------------------------|
G|-------------------------------------------|
D|----------11-------13-13-13-13-11-11-11-9~-|
A|-11/14-14----14-11-------------------------|
E|-------------------------------------------|

e|-0~--0~--0~--0~--0~-|
B|-0~--2~--0~--2~--0~-|
G|-4~--2~--6~--2~--4~-| CLEAN
D|-4~--2~--6~--2~--4~-|
A|-2~--0~--4~--0~--2~-|
E|--------------------|

e|-0-0-00-0--0-0-00-0--0-0-00-0---00-0--00-0------|
B|-0-0-00-0--2-2-22-2--0-0-00-0---22-2--00-0------|
G|-4-4-44-4--2-2-22-2--6-6-66-6---22-2--44-4------| CLEAN X1
D|-4-4-22-4--2-2-22-2--6-6-66-6---22-2--44-4------|
A|-2-2-22-2--0-0-00-0--4-4-44-4---00-0--22-2------|
E|------------------------------------------------|

e|-0-0-00-0--0-0-00-0--0-0-00-0---00-0--00-0------|
B|-0-0-00-0--2-2-22-2--0-0-00-0---22-2--00-0------|
G|-4-4-44-4--2-2-22-2--6-6-66-6---22-2--44-4------| CHORUS X4
D|-4-4-22-4--2-2-22-2--6-6-66-6---22-2--44-4------|
A|-2-2-22-2--0-0-00-0--4-4-44-4---00-0--22-2------|
E|------------------------------------------------|

Background guitar during last chorus X2
e|----------------------------------------------------------------------------|
B|----------------------------------------------------------------------------|
G|-13-11-9-9h11-11p9-11p9-11p9----13p11-13p11-13-11----11-11p9-11p9-11p9------|
D|-----------------------------11-------------------14-------------------11---|
A|----------------------------------------------------------------------------|
E|----------------------------------------------------------------------------|

e|-----------------------------------------------------------------------------------|
B|-----------------------------------------------------------------------------------|
G|-13p11-13p11-13-11----11-11p9-11p9-11p9----13p11-13p11-13-11--11-11p9-11p9-11p9----|
D|-------------------14-------------------11------------------14------------------11-|
A|-----------------------------------------------------------------------------------|
E|-----------------------------------------------------------------------------------|

...then

e|--------------------------------|
B|--------------------------------|
G|-13-11-9-9H11-11p9-11p9-11p9----|
D|-----------------------------11-| X4
A|--------------------------------| BACKGROUND GUITAR DURING LAST CHORUS
E|--------------------------------|


e|-0~---|
B|-0~---|
G|-4~---|
D|-4~---|      END!
A|-2~---|
E|------|


Trapt- Ready when you are

Danny Carrera
June 20, 2008
            

comments powered by Disqus
↑ Back to top | Trapt Tabs for Ready When You Are. Lyrics for acoustic guitar and electric guitar. Tablatures and chords are parodies/interpretations of the original songs. You may use it for private study, scholarship, research or language learning purposes only