>
 >
Hollowman

Hollowman Guitar Tabs

Trapt - Hollowman chords, tabs, tablatures, lyrics

Guitar lessons | Add/correct | Request | Top 50 tabs Artists:  A B C D E F G H I J K L M N O P Q R S T U V W X Y Z 0-9

Hollowman Guitar Tabs – Trapt

CD, Sheet music, Poster

Do you like Hollowman? Share with your friends now
TabsTabs v2
Trapt - Hollowman
Tuning (Low to High): A E A D Gb B
Time Signature: 8/8

Legend:

< > = harmonic
 /  = slide up
 \  = slide down
 h  = hammer-on
 p  = pull-off
 *  = Staccato
 

B |------------------------------||------------------------------|
Gb|------------------------------||------------------------------|
D |-------------------14---------||-------------------14---------|
A |-14-14-14-15-14-12-12---------||-14-14-14-15-14-12-12---------|
E |-12-12-12-12-12-12-12---------||-12-12-12-12-12-12-12---------|
A |-12-12-12-12-12-12-12---------||-12-12-12-12-12-12-12---------|

B |------------------------------||------------------------------|
Gb|------------------------------||------------------------------|
D |--------------------10--------||--------------------10--------|
A |--8--8--8--10-10-8--8---------||--8--8--8--10-10-8--8---------|
E |--8--8--8--8--8--8--8---------||--8--8--8--8--8--8--8---------|
A |--8--8--8--8--8--8--8---------||--8--8--8--8--8--8--8---------|

No Distortion
B |------------------------------||------------------------------|
Gb|------------------------------||------------------------------|
D |-------------------14---------||-------------------14---------|
A |-14-14-14-15-14-12-12---------||-14-14-14-15-14-12-12---------|
E |-12-12-12-12-12-12-12---------||-12-12-12-12-12-12-12---------|
A |-12-12-12-12-12-12-12---------||-12-12-12-12-12-12-12---------|
  "I --						   can't

Distortion
B |------------------------------||------------------------------|
Gb|------------------------------||------------------------------|
D |--------------------10--------||--------------------10--------|
A |--8--8--8--10-10-8--8---------||--8--8--8--10-10-8--8---------|
E |--8--8--8--8--8--8--8---------||--8--8--8--8--8--8--8---------|
A |--8--8--8--8--8--8--8---------||--8--8--8--8--8--8--8---------|
   remember..."   

B |------------------------------||------------------------------|
Gb|------------------------------||------------------------------|
D |-------------------14---------||-------------------14---------|
A |-14-14-14-15-14-12-12---------||-14-14-14-15-14-12-12---------|
E |-12-12-12-12-12-12-12---------||-12-12-12-12-12-12-12---------|
A |-12-12-12-12-12-12-12---------||-12-12-12-12-12-12-12---------|
	The last   time    you    cared    about anyone.

B |------------------------------||------------------------------|
Gb|------------------------------||------------------------------|
D |--------------------10--------||--------------------10--------|
A |--8--8--8--10-10-8--8---------||--8--8--8--10-10-8--8---------|
E |--8--8--8--8--8--8--8---------||--8--8--8--8--8--8--8---------|
A |--8--8--8--8--8--8--8---------||--8--8--8--8--8--8--8---------|
	The last   Time    you    allowed   yourself to be seen.

B |------------------------------||------------------------------|
Gb|------------------------------||------------------------------|
D |-------------------14---------||-------------------14---------|
A |-14-14-14-15-14-12-12---------||-14-14-14-15-14-12-12---------|
E |-12-12-12-12-12-12-12---------||-12-12-12-12-12-12-12---------|
A |-12-12-12-12-12-12-12---------||-12-12-12-12-12-12-12---------|
	So pretentious your lies	Unrelenting Disguise

B |------------------------------||------------------------------|
Gb|------------------------------||------------------------------|
D |--------------------10--------||--------------------10--------|
A |--8--8--8--10-10-8--8---------||--8--8--8--10-10-8--8---------|
E |--8--8--8--8--8--8--8---------||--8--8--8--8--8--8--8---------|
A |--8--8--8--8--8--8--8---------||--8--8--8--8--8--8--8---------|
	Creating tears in your eyes	Your mind whithers and dies

B |------------------------------||------------------------------|
Gb|------------------------------||------------------------------|
D |---------------------14-------||---------------------14-------|
A |-14--------h15p14p12-12-------||-14--------h15p14p12-12-------|
E |-12---------12-12-12-12-------||-12---------12-12-12-12-------|
A |-12---------12-12-12-12-------||-12---------12-12-12-12-------|
	Pretending to be   some- thing   you   are   not

B |------------------------------||------------------------------|
Gb|------------------------------||------------------------------|
D |--------------------10--------||------------------10----------|
A |--8--------10h10p8--8---------||--8------10h10p8--8-----------|
E |--8--------8--8--8--8---------||--8------8--8--8--8-----------|
A |--8--------8--8--8--8---------||--8------8--8--8--8-----------|
	Somwhere in the   mid- dle  you  are   now  caught

B |------------------------------||------------------------------|
Gb|------------------------------||------------------------------|
D |---------------------14-------||---------------------14-------|
A |-14--------h15p14p12-12-------||-14--------h15p14p12-12-------|
E |-12---------12-12-12-12-------||-12---------12-12-12-12-------|
A |-12---------12-12-12-12-------||-12---------12-12-12-12-------|
	You've nev- er  seen

B |------------------------------||------------------------------|
Gb|------------------------------||------------------------------|
D |------------------------------||------------------------------|
A |--8--8------8--8-10-----------||-10-10--8--------8--8---------|
E |--8--8------8--8-10-----------||-10-10--8--------8--8---------|
A |--8--8------8--8-10-----------||-10-10--8--------8--8---------|
	Who   you really are--

B |------------------------------||------------------------------||-----------5---------------|
Gb|-10---------------------------||---13---------6---------------||--------6---------6--------|
D |-11---------------------------||---14---------7---------------||-----7-----------------7---|
A |--0---------------------------||------------------------------||--8-----------------------8|
E |------------------------------||------------------------------||---------------------------|
A |------------------------------||------------------------------||---------------------------|
		No-	life	breathes	in	you--

B |------------------------------||------------------------------||--5--------5--------5------|
Gb|-10---------------------------||---13---------6---------------||-----6--------6--------6---|
D |-11---------------------------||---14---------7---------------||--------7--------7---------|
A |--0---------------------------||------------------------------||---------------------------|
E |------------------------------||------------------------------||---------------------------|
A |------------------------------||------------------------------||---------------------------|
		All the time you laugh you wait you 	cry--

B |------------------------------||------------------------------||-----------5---------------|
Gb|-10---------------------------||---13---------6---------------||--------6---------6--------|
D |-11---------------------------||---14---------7---------------||-----7-----------------7---|
A |--0---------------------------||------------------------------||--8-----------------------8|
E |------------------------------||------------------------------||---------------------------|
A |------------------------------||------------------------------||---------------------------|
		No  part	of your life	is 	true--

B |------------------------------||------------------------------||--5--------5--------5------|
Gb|-10---------------------------||---13---------6---------------||-----6--------6--------6---|
D |-11---------------------------||---14---------7---------------||--------7--------7---------|
A |--0---------------------------||------------------------------||---------------------------|
E |------------------------------||------------------------------||---------------------------|
A |------------------------------||------------------------------||---------------------------|
		All the time your life	passes you 	bye--

B |------------------------------||------------------------------|
Gb|------------------------------||------------------------------|
D |-------------------14---------||-------------------14---------|
A |-14-14-14-15-14-12-12---------||-14-14-14-15-14-12-12---------|
E |-12-12-12-12-12-12-12---------||-12-12-12-12-12-12-12---------|
A |-12-12-12-12-12-12-12---------||-12-12-12-12-12-12-12---------|
	The last   time    you    cared    about anyone.

B |------------------------------||------------------------------|
Gb|------------------------------||------------------------------|
D |--------------------10--------||--------------------10--------|
A |--8--8--8--10-10-8--8---------||--8--8--8--10-10-8--8---------|
E |--8--8--8--8--8--8--8---------||--8--8--8--8--8--8--8---------|
A |--8--8--8--8--8--8--8---------||--8--8--8--8--8--8--8---------|
	The last   Time    you    allowed   yourself to be seen.

B |------------------------------||------------------------------|
Gb|------------------------------||------------------------------|
D |-------------------14---------||-------------------14---------|
A |-14-14-14-15-14-12-12---------||-14-14-14-15-14-12-12---------|
E |-12-12-12-12-12-12-12---------||-12-12-12-12-12-12-12---------|
A |-12-12-12-12-12-12-12---------||-12-12-12-12-12-12-12---------|
	So pretentious your lies	Unrelenting Disguise

B |------------------------------||------------------------------|
Gb|------------------------------||------------------------------|
D |--------------------10--------||--------------------10--------|
A |--8--8--8--10-10-8--8---------||--8--8--8--10-10-8--8---------|
E |--8--8--8--8--8--8--8---------||--8--8--8--8--8--8--8---------|
A |--8--8--8--8--8--8--8---------||--8--8--8--8--8--8--8---------|
	Creating tears in your eyes	Your mind whithers and dies

B |------------------------------||------------------------------|
Gb|------------------------------||------------------------------|
D |---------------------14-------||---------------------14-------|
A |-14--------h15p14p12-12-------||-14--------h15p14p12-12-------|
E |-12---------12-12-12-12-------||-12---------12-12-12-12-------|
A |-12---------12-12-12-12-------||-12---------12-12-12-12-------|
	Pretending to be   some- thing   you   are   not

B |------------------------------||------------------------------|
Gb|------------------------------||------------------------------|
D |--------------------10--------||------------------10----------|
A |--8--------10h10p8--8---------||--8------10h10p8--8-----------|
E |--8--------8--8--8--8---------||--8------8--8--8--8-----------|
A |--8--------8--8--8--8---------||--8------8--8--8--8-----------|
	Somwhere in the   mid- dle  you  are   now  caught

B |------------------------------||------------------------------|
Gb|------------------------------||------------------------------|
D |---------------------14-------||---------------------14-------|
A |-14--------h15p14p12-12-------||-14--------h15p14p12-12-------|
E |-12---------12-12-12-12-------||-12---------12-12-12-12-------|
A |-12---------12-12-12-12-------||-12---------12-12-12-12-------|
	You've nev- er  seen

B |------------------------------||------------------------------|
Gb|------------------------------||------------------------------|
D |------------------------------||------------------------------|
A |--8--8------8--8-10-----------||-10-10--8--------8--8---------|
E |--8--8------8--8-10-----------||-10-10--8--------8--8---------|
A |--8--8------8--8-10-----------||-10-10--8--------8--8---------|
	Who   you really are--

B |------------------------------||------------------------------|
Gb|------------------------------||------------------------------|
D |------------------------------||------------------------------|
A |--0--0--0--0--0--0--0---------||--0--0--0--0--0--0--0---------|
E |--0--0--0--0--0--0--0---------||--0--0--0--0--0--0--0---------|
A |--0--0--0--0--0--0--0---------||--0--0--0--0--0--0--0---------|
     I don't ever wanna see	     I don't ever wanna be

B |------------------------------||------------------------------|
Gb|------------------------------||------------------------------|
D |------------------------------||------------------------------|
A |-10---------10-10-10----------||--1--1--1--1------2/----------|
E |--8----------8--8--8----------||--1--1--1--1------3/----------|
A |--8----------8--8--8----------||--1--1--1--1------------------|
     like	you--			   Hollowman.

B |------------------------------||------------------------------|
Gb|------------------------------||------------------------------|
D |------------------------------||------------------------------|
A |--0--0--0--0--0--0--0---------||--0--0--0--0--0--0--0---------|
E |--0--0--0--0--0--0--0---------||--0--0--0--0--0--0--0---------|
A |--0--0--0--0--0--0--0---------||--0--0--0--0--0--0--0---------|
     I don't care what you give	     Hollowman you can't live

B |------------------------------||------------------------------|
Gb|------------------------------||------------------------------|
D |------------------------------||------------------------------|
A |-10---------10-10-10----------||--1--1--1--1------2/----------|
E |--8----------8--8--8----------||--1--1--1--1------3/----------|
A |--8----------8--8--8----------||--1--1--1--1------------------|
     like	this--

B |--------------------20--------||-------------------20---------|
Gb|------------------------------||------------------------------|
D |------------------------------||------------------------------|
A |--0--0--0--0--0--0------------||--0--0--0--0--0--0------------|
E |--0--0--0--0--0--0------------||--0--0--0--0--0--0------------|
A |--0--0--0--0--0--0------------||--0--0--0--0--0--0------------|
     Palm Muting		     Palm Muting
     I don't ever wanna see	     I don't ever wanna be

B |------------------------------||------------------------------|
Gb|------------------------------||------------------------------|
D |------------------------------||------------------------------|
A |-10---------10-10-10----------||--1--1--1--1------2/----------|
E |--8----------8--8--8----------||--1--1--1--1------3/----------|
A |--8----------8--8--8----------||--1--1--1--1------------------|
     like	you--			   Hollowman.

B |--------------------20--------||-------------------20---------|
Gb|------------------------------||------------------------------|
D |------------------------------||------------------------------|
A |--0--0--0--0--0--0------------||--0--0--0--0--0--0------------|
E |--0--0--0--0--0--0------------||--0--0--0--0--0--0------------|
A |--0--0--0--0--0--0------------||--0--0--0--0--0--0------------|
     Palm Muting		     Palm Muting
     I don't care what you give     Hollowman you can't live

B |------------------------------||------------------------------|
Gb|------------------------------||------------------------------|
D |------------------------------||------------------------------|
A |-10---------10-10-10----------||--1--1--1--1------2/----------|
E |--8----------8--8--8----------||--1--1--1--1------3/----------|
A |--8----------8--8--8----------||--1--1--1--1------------------|
     like	this--

B |-----------------------------||---------------------------||-----------5---------------|
Gb|-10--------------------------||---13---------6------------||--------6---------6--------|
D |-11--------------------------||---14---------7------------||-----7-----------------7---|
A |--0--------------------------||---------------------------||--8-----------------------8|
E |-----------------------------||---------------------------||---------------------------|
A |-----------------------------||---------------------------||---------------------------|
		"Your voice is just a whis-	per--
B |-----------------------------||---------------------------||--5--------5--------5------|
Gb|-10--------------------------||---13---------6------------||-----6--------6--------6---|
D |-11--------------------------||---14---------7------------||--------7--------7---------|
A |--0--------------------------||---------------------------||---------------------------|
E |-----------------------------||---------------------------||---------------------------|
A |-----------------------------||---------------------------||---------------------------|
		 You call upon your blank thoughts as you try--

B |-----------------------------||---------------------------||-----------5---------------|
Gb|-10--------------------------||---13---------6------------||--------6---------6--------|
D |-11--------------------------||---14---------7------------||-----7-----------------7---|
A |--0--------------------------||---------------------------||--8-----------------------8|
E |-----------------------------||---------------------------||---------------------------|
A |-----------------------------||---------------------------||---------------------------|
		 To fit in where you missed her---

B |-----------------------------||---------------------------||--5--------5--------5------|
Gb|-10--------------------------||---13---------6------------||-----6--------6--------6---|
D |-11--------------------------||---14---------7------------||--------7--------7---------|
A |--0--------------------------||---------------------------||---------------------------|
E |-----------------------------||---------------------------||---------------------------|
A |-----------------------------||---------------------------||---------------------------|
		 You missed the chance to stop living the lie--

B |------------------------------||------------------------------|
Gb|------------------------------||------------------------------|
D |-------------------14---------||-------------------14---------|
A |-14-14-14-15-14-12-12---------||-14-14-14-15-14-12-12---------|
E |-12-12-12-12-12-12-12---------||-12-12-12-12-12-12-12---------|
A |-12-12-12-12-12-12-12---------||-12-12-12-12-12-12-12---------|
	The last   time    you    cared    about anyone.

B |------------------------------||------------------------------|
Gb|------------------------------||------------------------------|
D |--------------------10--------||--------------------10--------|
A |--8--8--8--10-10-8--8---------||--8--8--8--10-10-8--8---------|
E |--8--8--8--8--8--8--8---------||--8--8--8--8--8--8--8---------|
A |--8--8--8--8--8--8--8---------||--8--8--8--8--8--8--8---------|
	The last   Time    you    allowed   yourself to be seen.

B |------------------------------||------------------------------|
Gb|------------------------------||------------------------------|
D |-------------------14---------||-------------------14---------|
A |-14-14-14-15-14-12-12---------||-14-14-14-15-14-12-12---------|
E |-12-12-12-12-12-12-12---------||-12-12-12-12-12-12-12---------|
A |-12-12-12-12-12-12-12---------||-12-12-12-12-12-12-12---------|
	So pretentious your lies	Unrelenting Disguise

B |------------------------------||------------------------------|
Gb|------------------------------||------------------------------|
D |--------------------10--------||--------------------10--------|
A |--8--8--8--10-10-8--8---------||--8--8--8--10-10-8--8---------|
E |--8--8--8--8--8--8--8---------||--8--8--8--8--8--8--8---------|
A |--8--8--8--8--8--8--8---------||--8--8--8--8--8--8--8---------|
	Creating tears in your eyes	Your mind whithers and dies

B |------------------------------||------------------------------|
Gb|------------------------------||------------------------------|
D |---------------------14-------||---------------------14-------|
A |-14--------h15p14p12-12-------||-14--------h15p14p12-12-------|
E |-12---------12-12-12-12-------||-12---------12-12-12-12-------|
A |-12---------12-12-12-12-------||-12---------12-12-12-12-------|
	Pretending to be   some- thing   you   are   not

B |------------------------------||------------------------------|
Gb|------------------------------||------------------------------|
D |--------------------10--------||------------------10----------|
A |--8--------10h10p8--8---------||--8------10h10p8--8-----------|
E |--8--------8--8--8--8---------||--8------8--8--8--8-----------|
A |--8--------8--8--8--8---------||--8------8--8--8--8-----------|
	Somwhere in the   mid- dle  you  are   now  caught

B |------------------------------||------------------------------|
Gb|------------------------------||------------------------------|
D |---------------------14-------||---------------------14-------|
A |-14--------h15p14p12-12-------||-14--------h15p14p12-12-------|
E |-12---------12-12-12-12-------||-12---------12-12-12-12-------|
A |-12---------12-12-12-12-------||-12---------12-12-12-12-------|
	You've nev- er  seen

B |------------------------------||------------------------------|
Gb|------------------------------||------------------------------|
D |------------------------------||------------------------------|
A |--8--8------8--8-10-----------||-10-10--8--------8--8---------|
E |--8--8------8--8-10-----------||-10-10--8--------8--8---------|
A |--8--8------8--8-10-----------||-10-10--8--------8--8---------|
	Who   you really are--

B |------------------------------||------------------------------|
Gb|------------------------------||------------------------------|
D |------------------------------||------------------------------|
A |--0--0--0--0--0--0--0---------||--0--0--0--0--0--0--0---------|
E |--0--0--0--0--0--0--0---------||--0--0--0--0--0--0--0---------|
A |--0--0--0--0--0--0--0---------||--0--0--0--0--0--0--0---------|
     I don't ever wanna see	     I don't ever wanna be

B |------------------------------||------------------------------|
Gb|------------------------------||------------------------------|
D |------------------------------||------------------------------|
A |-10---------10-10-10----------||--1--1--1--1------2/----------|
E |--8----------8--8--8----------||--1--1--1--1------3/----------|
A |--8----------8--8--8----------||--1--1--1--1------------------|
     like	you--			   Hollowman.

B |------------------------------||------------------------------|
Gb|------------------------------||------------------------------|
D |------------------------------||------------------------------|
A |--0--0--0--0--0--0--0---------||--0--0--0--0--0--0--0---------|
E |--0--0--0--0--0--0--0---------||--0--0--0--0--0--0--0---------|
A |--0--0--0--0--0--0--0---------||--0--0--0--0--0--0--0---------|
     I don't care what you give	     Hollowman you can't live

B |------------------------------||------------------------------|
Gb|------------------------------||------------------------------|
D |------------------------------||------------------------------|
A |-10---------10-10-10----------||--1--1--1--1------2/----------|
E |--8----------8--8--8----------||--1--1--1--1------3/----------|
A |--8----------8--8--8----------||--1--1--1--1------------------|
     like	this--

B |--------------------20--------||-------------------20---------|
Gb|------------------------------||------------------------------|
D |------------------------------||------------------------------|
A |--0--0--0--0--0--0------------||--0--0--0--0--0--0------------|
E |--0--0--0--0--0--0------------||--0--0--0--0--0--0------------|
A |--0--0--0--0--0--0------------||--0--0--0--0--0--0------------|
     Palm Muting		     Palm Muting
     I don't ever wanna see	     I don't ever wanna be

B |------------------------------||------------------------------|
Gb|------------------------------||------------------------------|
D |------------------------------||------------------------------|
A |-10---------10-10-10----------||--1--1--1--1------2/----------|
E |--8----------8--8--8----------||--1--1--1--1------3/----------|
A |--8----------8--8--8----------||--1--1--1--1------------------|
     like	you--			   Hollowman.

B |--------------------20--------||-------------------20---------|
Gb|------------------------------||------------------------------|
D |------------------------------||------------------------------|
A |--0--0--0--0--0--0------------||--0--0--0--0--0--0------------|
E |--0--0--0--0--0--0------------||--0--0--0--0--0--0------------|
A |--0--0--0--0--0--0------------||--0--0--0--0--0--0------------|
     Palm Muting		     Palm Muting
     I don't care what you give     Hollowman you can't live

B |------------------------------||------------------------------|
Gb|------------------------------||------------------------------|
D |------------------------------||------------------------------|
A |-10---------10-10-10----------||--1--1--1--1------2/----------|
E |--8----------8--8--8----------||--1--1--1--1------3/----------|
A |--8----------8--8--8----------||--1--1--1--1------------------|
     like	this--

B |------------------------------||------------------------------|
Gb|------------------------------||------------------------------|
D |-----9-----9-10------9----9-10||-----2-----2------------------|
A |--0-----0---------0-----0-----||--------------------0-----0---|
E |------------------------------||--3-----3--------1-----1------|
A |------------------------------||------------------------------|

B |------------------------------||------------------------------|
Gb|------------------------------||------------------------------|
D |-----9-----9-10------9----9-10||-----2-----2------------------|
A |--0-----0---------0-----0-----||--------------------0-----0---|
E |------------------------------||--3-----3--------1-----1------|
A |------------------------------||------------------------------|

B |------------------------------||------------------------------|
Gb|------------------------------||------------------------------|
D |-----9-----9-10------9----9-10||-----2-----2------------------|
A |--0-----0---------0-----0-----||--------------------0-----0---|
E |------------------------------||--3-----3--------1-----1------|
A |------------------------------||------------------------------|

B |------------------------------||------------------------------|
Gb|------------------------------||------------------------------|
D |------9-10/12p10\9/-10\-9\7---||-----2-----2------------------|
A |--0---------------------------||--------------------0-----0---|
E |------------------------------||--3-----3--------1-----1------|
A |------------------------------||------------------------------|

No Distortion
B |------------------------------||------------------------------|
Gb|------------------------------||------------------------------|
D |-------------------14---------||-------------------14---------|
A |-14-14-14-15-14-12-12---------||-14-14-14-15-14-12-12---------|
E |-12-12-12-12-12-12-12---------||-12-12-12-12-12-12-12---------|
A |-12-12-12-12-12-12-12---------||-12-12-12-12-12-12-12---------|
  "I --						   can't

Distortion
B |------------------------------||------------------------------|
Gb|------------------------------||------------------------------|
D |--------------------10--------||--------------------10--------|
A |--8--8--8--10-10-8--8---------||--8--8--8--10-10-8--8---------|
E |--8--8--8--8--8--8--8---------||--8--8--8--8--8--8--8---------|
A |--8--8--8--8--8--8--8---------||--8--8--8--8--8--8--8---------|
   remember..."   

B |------------------------------||------------------------------|
Gb|------------------------------||------------------------------|
D |-------------------14---------||-------------------14---------|
A |-14-14-14-15-14-12-12---------||-14-14-14-15-14-12-12---------|
E |-12-12-12-12-12-12-12---------||-12-12-12-12-12-12-12---------|
A |-12-12-12-12-12-12-12---------||-12-12-12-12-12-12-12---------|
	The last   time    you    cared    about anyone.

B |------------------------------||------------------------------|
Gb|------------------------------||------------------------------|
D |--------------------10--------||--------------------10--------|
A |--8--8--8--10-10-8--8---------||--8--8--8--10-10-8--8---------|
E |--8--8--8--8--8--8--8---------||--8--8--8--8--8--8--8---------|
A |--8--8--8--8--8--8--8---------||--8--8--8--8--8--8--8---------|
	The last   Time    you    allowed   yourself to be seen.

B |------------------------------||------------------------------|
Gb|------------------------------||------------------------------|
D |-------------------14---------||-------------------14---------|
A |-14-14-14-15-14-12-12---------||-14-14-14-15-14-12-12---------|
E |-12-12-12-12-12-12-12---------||-12-12-12-12-12-12-12---------|
A |-12-12-12-12-12-12-12---------||-12-12-12-12-12-12-12---------|
	So pretentious your lies	Unrelenting Disguise

B |------------------------------||------------------------------|
Gb|------------------------------||------------------------------|
D |--------------------10--------||--------------------10--------|
A |--8--8--8--10-10-8--8---------||--8--8--8--10-10-8--8---------|
E |--8--8--8--8--8--8--8---------||--8--8--8--8--8--8--8---------|
A |--8--8--8--8--8--8--8---------||--8--8--8--8--8--8--8---------|
	Creating tears in your eyes	Your mind whithers and dies

B |------------------------------||------------------------------|
Gb|------------------------------||------------------------------|
D |---------------------14-------||---------------------14-------|
A |-14--------h15p14p12-12-------||-14--------h15p14p12-12-------|
E |-12---------12-12-12-12-------||-12---------12-12-12-12-------|
A |-12---------12-12-12-12-------||-12---------12-12-12-12-------|
	Pretending to be   some- thing   you   are   not

B |------------------------------||------------------------------|
Gb|------------------------------||------------------------------|
D |--------------------10--------||------------------10----------|
A |--8--------10h10p8--8---------||--8------10h10p8--8-----------|
E |--8--------8--8--8--8---------||--8------8--8--8--8-----------|
A |--8--------8--8--8--8---------||--8------8--8--8--8-----------|
	Somwhere in the   mid- dle  you  are   now  caught

B |------------------------------||------------------------------|
Gb|------------------------------||------------------------------|
D |---------------------14-------||---------------------14-------|
A |-14--------h15p14p12-12-------||-14--------h15p14p12-12-------|
E |-12---------12-12-12-12-------||-12---------12-12-12-12-------|
A |-12---------12-12-12-12-------||-12---------12-12-12-12-------|
	You've nev- er  seen

B |------------------------------||------------------------------|
Gb|------------------------------||------------------------------|
D |------------------------------||------------------------------|
A |--8--8------8--8-10-----------||-10-10--8--------8--8---------|
E |--8--8------8--8-10-----------||-10-10--8--------8--8---------|
A |--8--8------8--8-10-----------||-10-10--8--------8--8---------|
	Who   you really are--

B |------------------------------||------------------------------|
Gb|------------------------------||------------------------------|
D |------------------------------||------------------------------|
A |--0--0--0--0--0--0--0---------||--0--0--0--0--0--0--0---------|
E |--0--0--0--0--0--0--0---------||--0--0--0--0--0--0--0---------|
A |--0--0--0--0--0--0--0---------||--0--0--0--0--0--0--0---------|
     I don't ever wanna see	     I don't ever wanna be

B |------------------------------||------------------------------|
Gb|------------------------------||------------------------------|
D |------------------------------||------------------------------|
A |-10---------10-10-10----------||--1--1--1--1------2/----------|
E |--8----------8--8--8----------||--1--1--1--1------3/----------|
A |--8----------8--8--8----------||--1--1--1--1------------------|
     like	you--			   Hollowman.

B |------------------------------||------------------------------|
Gb|------------------------------||------------------------------|
D |------------------------------||------------------------------|
A |--0--0--0--0--0--0--0---------||--0--0--0--0--0--0--0---------|
E |--0--0--0--0--0--0--0---------||--0--0--0--0--0--0--0---------|
A |--0--0--0--0--0--0--0---------||--0--0--0--0--0--0--0---------|
     I don't care what you give	     Hollowman you can't live

B |------------------------------||------------------------------|
Gb|------------------------------||------------------------------|
D |------------------------------||------------------------------|
A |-10---------10-10-10----------||--1--1--1--1------2/----------|
E |--8----------8--8--8----------||--1--1--1--1------3/----------|
A |--8----------8--8--8----------||--1--1--1--1------------------|
     like	this--

B |--------------------20--------||-------------------20---------|
Gb|------------------------------||------------------------------|
D |------------------------------||------------------------------|
A |--0--0--0--0--0--0------------||--0--0--0--0--0--0------------|
E |--0--0--0--0--0--0------------||--0--0--0--0--0--0------------|
A |--0--0--0--0--0--0------------||--0--0--0--0--0--0------------|
     Palm Muting		     Palm Muting
     I don't ever wanna see	     I don't ever wanna be

B |------------------------------||------------------------------|
Gb|------------------------------||------------------------------|
D |------------------------------||------------------------------|
A |-10---------10-10-10----------||--1--1--1--1------2/----------|
E |--8----------8--8--8----------||--1--1--1--1------3/----------|
A |--8----------8--8--8----------||--1--1--1--1------------------|
     like	you--			   Hollowman.

B |--------------------20--------||-------------------20---------|
Gb|------------------------------||------------------------------|
D |------------------------------||------------------------------|
A |--0--0--0--0--0--0------------||--0--0--0--0--0--0------------|
E |--0--0--0--0--0--0------------||--0--0--0--0--0--0------------|
A |--0--0--0--0--0--0------------||--0--0--0--0--0--0------------|
     Palm Muting		     Palm Muting
     I don't care what you give     Hollowman you can't live

B |------------------------------||------------------------------|
Gb|------------------------------||------------------------------|
D |------------------------------||------------------------------|
A |-10---------10-10-10----------||--1--1--1--1------2/----------|
E |--8----------8--8--8----------||--1--1--1--1------3/----------|
A |--8----------8--8--8----------||--1--1--1--1------------------|
     like	this--

B |-------------------------<5>--||-------------<5>--------------|
Gb|---------------------<5>------||-----------------<5>----------|
D |-----------------<5>----------||---------------------<5>------|
A |--0--0--0--0-<5>--------------||--0--0--0--0-------------<5>--|
E |--0--0--0--0------------------||--0--0--0--0------------------|
A |--0--0--0--0------------------||--0--0--0--0------------------|

B |------------------------------||------------------------------|
Gb|------------------------------||------------------------------|
D |------------------------------||------------------------------|
A |--2---2--2--2--2--2--2--2-----||--3--3--3--3--3--3/---5-------|
E |--3---3--3--3--3--3--3--3-----||--2--0--0--0--0--0------------|
A |------------------------------||------------------------------|

B |-------------------------<5>--||-------------<5>--------------|
Gb|---------------------<5>------||-----------------<5>----------|
D |-----------------<5>----------||---------------------<5>------|
A |--0--0--0--0-<5>--------------||--0--0--0--0-------------<5>--|
E |--0--0--0--0------------------||--0--0--0--0------------------|
A |--0--0--0--0------------------||--0--0--0--0------------------|
     Where--				is-- 		your--
B |------------------------------||------------------------------|
Gb|------------------------------||------------------------------|
D |------------------------------||------------------------------|
A |--2---2--2--2--2--2--2--2-----||--3--3--3--3--3--3/---5-------|
E |--3---3--3--3--3--3--3--3-----||--2--0--0--0--0--0------------|
A |------------------------------||------------------------------|
     sanity?

B |------------------------------||------------------------------|
Gb|------------------------------||------------------------------|
D |------------------------------||------------------------------|
A |--0--------0------0--0--0--0--||--0--------0------0--0--0--0--|
E |--0--------0------0--0--0--0--||--0--------0------0--0--0--0--|
A |--0--------0------0--0--0--0--||--0--------0------0--0--0--0--|
     *	      *	        *  *  *	     *	      *	     *	   *  *
     WHERE				IS		YOUR

B |------------------------------||------------------------------|
Gb|------------------------------||------------------------------|
D |------------------------------||------------------------------|
A |--2---2--2--2--2--2--2--2-----||--3--3--3--3--3--3/---5-------|
E |--3---3--3--3--3--3--3--3-----||--2--0--0--0--0--0------------|
A |------------------------------||------------------------------|
     SAAAAAAAAAAAAA-   NI- TY?!

B |------------------------------||------------------------------|
Gb|------------------------------||------------------------------|
D |------------------------------||------------------------------|
A |--0--------0------0--0--0--0--||--0--------0------0--0--0--0--|
E |--0--------0------0--0--0--0--||--0--------0------0--0--0--0--|
A |--0--------0------0--0--0--0--||--0--------0------0--0--0--0--|
     *	      *	        *  *  *	     *	      *	     *	   *  *

B |------------------------------||------------------------------|
Gb|------------------------------||------------------------------|
D |------------------------------||------------------------------|
A |--2---2--2--2--2--2--2--2-----||--3--3--3--3--3--3/---5-------|
E |--3---3--3--3--3--3--3--3-----||--2--0--0--0--0--0------------|
A |------------------------------||------------------------------|

B |------------------------------||
Gb|------------------------------||
D |------------------------------||
A |--0---------------------------||
E |--0---------------------------||
A |--0---------------------------||
   Let last note ring out.





Comments


Popular Trapt tabs & chords
New Beginning Bass Tabs
The Game 1 Bass Tabs
Whos Going Home With You Tonight Bass Tabs
Headstrong Chords
Echo 4 Tabs
Headstrong 4 Tabs
Promise Tabs
Stories 2 Tabs
Waiting Tabs
When All Is Said And Done Tabs


Song lyrics



↑ Back to top | Tablatures and chords are parodies/interpretations of the original songs. You may use it for private study, scholarship, research or language learning purposes only
© 2014 AZChords.com Contact us | Privacy policy | DMCA | Add/correct tabs | Request tabs | Top 50 tabs