» » »

Hollowman Tabs (ver.2)

Artists:  A B C D E F G H I J K L M N O P Q R S T U V W X Y Z # 

Hollowman Tabs (ver.2)

Trapt
Rating:
0/5 (0 votes)

Tabs too difficult? Try these video lessons and learn fast.
                
HOLLOWMAN
As recorded by Trapt
(From the 2003 Album TRAPT)

	

Words and Music by Trapt
Arranged by Trapt

Asus2
x x 0 2 4 5 x
	
Fsus2
x 3 3 3 0 x x
	
G5
x 3 3 3 x x x
	
A
x x 0 7 6 5 x

C/A
x x 0 10 9 8 x
	
Fmaj7/A
x x 0 3 2 1 0
	
Cadd9/A
x x 0 10 9 8 10
	
Fadd9/A
x x 0 3 2 1 3

A5
0 2 0 2 x x x
	
Bb5
8 8 8 x x x x
	
F5
3 3 3 x x x x
	
Bsus2/C#
x 9 x 9 x x x

Gtr I (A D A D G B E) - 'Distortion'
Gtr II (A D A D G B E) - 'Clean'
Gtr III (A D A D G B E) - 'Overdriven'

 Intro
  Moderately Slow Q=82
  Asus2                         Fsus2
 4/4
  Gtr I
  S S S S S S e S S S S S S e   S S S S S S e S S S S S S e
|-----------------------------|-----------------------------|
|-------------5-------------5-|-------------1-------------1-|
|-4-4-4-5-4p2-2-4-4-4-5-4p2-2-|-0-0-0-2-0-----0-0-0-2-0-----|
|-2-2-2-2-2---2-2-2-2-2-2---2-|-3-3-3-3-3-3---3-3-3-3-3-3---|
|-0-0-0-0-0---0-0-0-0-0-0---0-|-3-3-3-3-3-3---3-3-3-3-3-3---|
|-----------------------------|-3-3-3---3-3---3-3-3---3-3---|
|-----------------------------|-----------------------------|


                                    Fsus2
  Gtr II                            Gtr I
  S T T S S S S E S T T S S S S E   S S S S S S e S S S S S S e
|---------------------------------|------------------------------|
|---------------5---------------5-|-------------1-------------1--|
|-4-4-4-4-5-4p2-2-4-4-4-4-5-4p2-2-|-0-0-0-2-0-----0-0-0-2-0------|
|-2-2-2-2-2-2---2-2-2-2-2-2-2---2-|-3-3-3-3-3-3---3-3-3-3-3-3----|
|-0-0-0-0-0-0-----0-0-0-0-0-0---0-|-3-3-3-3-3-3---3-3-3-3-3-3----|
|---------------------------------|-3-3-3---3-3---3-3-3---3-3----|
|---------------------------------|------------------------------|


 Pre-Chorus
  Asus2                         Fsus2
  S S S S S S e S S S S S S e   S S S S S S e S S S S S S e
|-----------------------------|-----------------------------|
|-------------5-------------5-|-------------1-------------1-|
|-4-4-4-5-4p2-2-4-4-4-5-4p2-2-|-0-0-0-2-0-----0-0-0-2-0-----|
|-2-2-2-2-2---2-2-2-2-2-2---2-|-3-3-3-3-3-3---3-3-3-3-3-3---|
|-0-0-0-0-0---0-0-0-0-0-0---0-|-3-3-3-3-3-3---3-3-3-3-3-3---|
|-----------------------------|-3-3-3---3-3---3-3-3---3-3---|
|-----------------------------|-----------------------------|


  Asus2                         Fsus2
  S S S S S S e S S S S S S e   S S S S S S e S S S S S S e
|-----------------------------|-----------------------------|
|-------------5-------------5-|-------------1-------------1-|
|-4-4-4-5-4p2-2-4-4-4-5-4p2-2-|-0-0-0-2-0-----0-0-0-2-0-----|
|-2-2-2-2-2---2-2-2-2-2-2---2-|-3-3-3-3-3-3---3-3-3-3-3-3---|
|-0-0-0-0-0---0-0-0-0-0-0---0-|-3-3-3-3-3-3---3-3-3-3-3-3---|
|-----------------------------|-3-3-3---3-3---3-3-3---3-3---|
|-----------------------------|-----------------------------|


  Asus2                           Fsus2
  S S S S S S E +S  S S S S S e   S S S S S S e S S S S S S e
|-------------------------------|-----------------------------|
|-------------5-(5)-----------5-|-------------1-------------1-|
|-4-4-4-5-4p2-2-(2)-4-4-5-4p2-2-|-0-0-0-2-0-----0-0-0-2-0-----|
|-2-2-2-2-2---2-(2)-2-2-2-2---2-|-3-3-3-3-3-3---3-3-3-3-3-3---|
|-0-0-0-0-0---0-(0)-0-0-0-0---0-|-3-3-3-3-3-3---3-3-3-3-3-3---|
|-------------------------------|-3-3-3---3-3---3-3-3---3-3---|
|-------------------------------|-----------------------------|


  Asus2                          Fsus2   G5    Fsus2
  S S S S S S E +S  E S +S  E.   S E S S E S S E. +Q
|------------------------------|-----------------------||
|-------------5-(5)-6-5-(5)-6--|-----------------------||
|-4-4-4-5-4p2-2-(2)-2-2-(2)-2--|-----------------------||
|-2-2-2-2-2---2-(2)-2-2-(2)-2--|---3-3---5-5---3--(3)--||
|-0-0-0-0-0---0-(0)---0-(0)----|---3-3---5-5---3--(3)--||
|------------------------------|---3-3---5-5---3--(3)--||
|------------------------------|-----------------------||


   Verse
    A       C/A    Fmaj7/A               A       C/A
    Gtr II
    H.       Q     H    S S S S +S  E.   H.       Q
||---------------|------------0-(0)----|--------------|
||--5--------8\--|-1--------1-------1--|-5--------8\--|
||o-6--------9\--|-2------2------------|-6--------9\--|
||--7-------10\--|-3----3--------------|-7-------10\--|
||o-0------------|-0-------------------|-0------------|
||---------------|---------------------|--------------|
||---------------|---------------------|--------------|


  Fmaj7/A                A       Cadd9/A
  H    S S S S +S  S E   H.       Q
|------0-----0-(0)---0-|---------10\--|
|-1------1---------1---|-5--------8\--|
|-2--------2-----------|-6--------9\--|
|-3--------------------|-7-------10\--|
|-0--------------------|-0------------|
|----------------------|--------------|
|----------------------|--------------|


  Fadd9/A               A       Cadd9/A
  H    S S S S +S  E.   H.       Q
|-3----------3-(3)----|---------10\--|
|-1--------1-------1--|-5--------8\--|
|-2------2------------|-6--------9\--|
|-3----3--------------|-7-------10\--|
|-0-------------------|-0------------|
|---------------------|--------------|
|---------------------|--------------|


                         Pre-Chorus
                       $
  Fadd9/A                 Asus2
                          Gtr I
  H    S S S S +S  S E    S S S S S S e S S S S S S e
|-3----3-----3-(3)---3-||-----------------------------|
|-1------1-------------||-------------5-------------5-|
|-2--------2-------2---||-4-4-4-5-4p2-2-4-4-4-5-4p2-2-|
|-3--------------------||-2-2-2-2-2---2-2-2-2-2-2---2-|
|-0--------------------||-0-0-0-0-0---0-0-0-0-0-0---0-|
|----------------------||-----------------------------|
|----------------------||-----------------------------|


  Fsus2
  S S S S S S e S S S S S S e
|-----------------------------|
|-------------1-------------1-|
|-0-0-0-2-0-----0-0-0-2-0-----|
|-3-3-3-3-3-3---3-3-3-3-3-3---|
|-3-3-3-3-3-3---3-3-3-3-3-3---|
|-3-3-3---3-3---3-3-3---3-3---|
|-----------------------------|


  Asus2                         Fsus2
  S S S S S S e S S S S S S e   S S S S S S e S S S S S S e
|-----------------------------|-----------------------------|
|-------------5-------------5-|-------------1-------------1-|
|-4-4-4-5-4p2-2-4-4-4-5-4p2-2-|-0-0-0-2-0-----0-0-0-2-0-----|
|-2-2-2-2-2---2-2-2-2-2-2---2-|-3-3-3-3-3-3---3-3-3-3-3-3---|
|-0-0-0-0-0---0-0-0-0-0-0---0-|-3-3-3-3-3-3---3-3-3-3-3-3---|
|-----------------------------|-3-3-3---3-3---3-3-3---3-3---|
|-----------------------------|-----------------------------|


  Asus2                           Fsus2
  S S S S S S E +S  S S S S S e   S S S S S S e S S S S S S e
|-------------------------------|-----------------------------|
|-------------5-(5)-----------5-|-------------1-------------1-|
|-4-4-4-5-4p2-2-(2)-4-4-5-4p2-2-|-0-0-0-2-0-----0-0-0-2-0-----|
|-2-2-2-2-2---2-(2)-2-2-2-2---2-|-3-3-3-3-3-3---3-3-3-3-3-3---|
|-0-0-0-0-0---0-(0)-0-0-0-0---0-|-3-3-3-3-3-3---3-3-3-3-3-3---|
|-------------------------------|-3-3-3---3-3---3-3-3---3-3---|
|-------------------------------|-----------------------------|


  Asus2                            Fsus2 G5    Fsus2
  S S S S S S E +S  E S +S  E.   S E S S E S S E. +Q
|------------------------------|-----------------------||
|-------------5-(5)-6-5-(5)-6--|-----------------------||
|-4-4-4-5-4p2-2-(2)-2-2-(2)-2--|-----------------------||
|-2-2-2-2-2---2-(2)-2-2-(2)-2--|---3-3---5-5---3--(3)--||
|-0-0-0-0-0---0-(0)---0-(0)----|---3-3---5-5---3--(3)--||
|------------------------------|---3-3---5-5---3--(3)--||
|------------------------------|-----------------------||


 Chorus
  A5                            Fsus2   Bb5       Bsus2/C#
  S S S S S S e S S S S S S e   Q  E. S S S S S S S E
|-----------------------------|----0-------------------|
|-----------------------------|----1-------------------|
|-----------------------------|----2-------------------|
|-2-2-2-2-2-2-2-2-2-2-2-2-2-2-|-3-----------------9-9\-|
|-0-0-0-0-0-0-0-0-0-0-0-0-0-0-|-3-------8-8-8-8-8------|
|-2-2-2-2-2-2-2-2-2-2-2-2-2-2-|-3-----0-8-8-8-8-8-9-9\-|
|-0-0-0-0-0-0-0-0-0-0-0-0-0-0-|---------8-8-8-8-8------|


  A5                            Fsus2   Bb5       Bsus2/C#
  S S S S S S e S S S S S S e   Q  E. S S S S S S S E
|-----------------------------|----0-------------------|
|-----------------------------|----1-------------------|
|-----------------------------|----2-------------------|
|-2-2-2-2-2-2-2-2-2-2-2-2-2-2-|-3-----------------9-9\-|
|-0-0-0-0-0-0-0-0-0-0-0-0-0-0-|-3-------8-8-8-8-8------|
|-2-2-2-2-2-2-2-2-2-2-2-2-2-2-|-3-----0-8-8-8-8-8-9-9\-|
|-0-0-0-0-0-0-0-0-0-0-0-0-0-0-|---------8-8-8-8-8------|


  N.C.                              Fsus2   Bb5       Bsus2/C#
  S S S S S S  E  S S S S S S  E    Q  E. S S S S S S S E
|---------------------------------|----0-------------------|
|---------------------------------|----1-------------------|
|-------------<5>-------------<5>-|----2-------------------|
|---------------------------------|-3-----------------9-9\-|
|---------------------------------|-3-------8-8-8-8-8------|
|---------------------------------|-3-----0-8-8-8-8-8-9-9\-|
|-0-0-0-0-0-0-----0-0-0-0-0-0-----|---------8-8-8-8-8------|


                                   1.
                       To Coda
  N.C.                              Fsus2   Bb5       Bsus2/C#
  S S S S S S  E  S S S S S S  E    Q  E. S S S S S S S E
|---------------------------------|----0--------------------||
|---------------------------------|----1--------------------||
|-------------<5>-------------<5>-|----2-------------------o||
|---------------------------------|-3-----------------9-9\--||
|---------------------------------|-3-------8-8-8-8-8------o||
|---------------------------------|-3-----0-8-8-8-8-8-9-9\--||
|-0-0-0-0-0-0-----0-0-0-0-0-0-----|---------8-8-8-8-8-------||


                           Interlude
  2.
  Fsus2   Bb5       Bsus2/C#Am
  Q  E. S S S S S S S E     E. S +S  S S  S E. S +S  S S  S
|----0-------------------||---------------------------------|
|----1-------------------||---------------------------------|
|----2-------------------||---------------------------------|
|-3-----------------9-9\-||----9-(9)---9h10----9-(9)---9-10-|
|-3-------8-8-8-8-8------||---------------------------------|
|-3-----0-8-8-8-8-8-9-9\-||-7--------7------7--------7------|
|---------8-8-8-8-8------||---------------------------------|


  G6           F6
  E. S +S  S E E. S +E  a E
|---------------------------|
|---------------------------|
|---------------------------|
|---------------------------|
|----7-(7)---7----5-(5)-5s7-|
|-5--------5---3------------|
|---------------------------|


  Am                                G6           F6
  E. S +S  S S  S E. S +S  S S  S   E. S +S  S E E. S +E  a E
|---------------------------------|---------------------------|
|---------------------------------|---------------------------|
|---------------------------------|---------------------------|
|----9-(9)---9h10----9-(9)---9-10-|---------------------------|
|---------------------------------|----7-(7)---7----5-(5)-5s7-|
|-7--------7------7--------7------|-5--------5---3------------|
|---------------------------------|---------------------------|


  Am
  E. S +S  S S  S E. S +S  S S  S
|----------------------------------|
|----------------------------------|
|----------------------------------|
|----9-(9)---9h10----9-(9)---9-10--|
|----------------------------------|
|-7--------7------7--------7-------|
|----------------------------------|


  G6           F6
  E. S +S  S E E. S +E  a E
|---------------------------|
|---------------------------|
|---------------------------|
|---------------------------|
|----7-(7)---7----5-(5)-5s7-|
|-5--------5---3------------|
|---------------------------|


  Am                                     G6           F6
   E. S +S   E  S  +S   E S +S   S S S   E. S +S  S E E. S +E  a E
|--------------------------------------|----------------------------|
|--------------------------------------|----------------------------|
|------------------------------------0-|----------------------------|
|-----9-(9)s10s12-(12)-10-9-(9)-10-9---|----------------------------|
|--------------------------------------|----7-(7)---7----5-(5)-5s7--|
|-/7-----------------------------------|-5--------5---3-------------|
|--------------------------------------|----------------------------|


                                                  D.S. al Coda
  Asus2                             F5
                                    Gtr I
  S T T S S S S E S T T S S S S E   S S S S S S e S S S S S S e
|---------------------------------|------------------------------||
|---------------5---------------5-|-------------1-------------1--||
|-4-4-4-4-5-4p2-2-4-4-4-4-5-4p2-2-|-0-0-0-2-0-----0-0-0-2-0------||
|-2-2-2-2-2-2---2-2-2-2-2-2-2---2-|-3-3-3-3-3-3---3-3-3-3-3-3----||
|-0-0-0-0-0-0-----0-0-0-0-0-0---0-|-3-3-3-3-3-3---3-3-3-3-3-3----||
|---------------------------------|-3-3-3---3-3---3-3-3---3-3----||
|---------------------------------|------------------------------||


                           Outro
  &
  Fsus2   Bb5       Bsus2/C#A5
  Q  E. S S S S S S S E     S S S S  S   S   S   S  S S S S  S   S   S   S
|----0-------------------||-------------------------------------------------|
|----1-------------------||---------------------<5>---------<5>-------------|
|----2-------------------||-----------------<5>-----------------<5>---------|
|-3-----------------9-9\-||-------------<5>-------------------------<5>-----|
|-3-------8-8-8-8-8------||-0-0-0-0-<5>-------------0-0-0-0-------------<5>-|
|-3-----0-8-8-8-8-8-9-9\-||-2-2-2-2-----------------2-2-2-2-----------------|
|---------8-8-8-8-8------||-0-0-0-0-----------------0-0-0-0-----------------|


  N.C.
  S S S S S S S S  S  S  S  S  S  S  S  S
|-----------------------------------------|
|-----------------------------------------|
|-----------------------------------------|
|-9-9-9-9-9-9-9-9-10-10-10-10s12-12-12-12-|
|-----------------------------------------|
|-9-9-9-9-9-9-9-9-10-10-10-10s12-12-12-12-|
|-----------------------------------------|


  A5
  S S S S  S   S   S   S  S S S S  S   S   S   S
|-------------------------------------------------|
|---------------------<5>---------<5>-------------|
|-----------------<5>-----------------<5>---------|
|-------------<5>-------------------------<5>-----|
|-0-0-0-0-<5>-------------0-0-0-0-------------<5>-|
|-2-2-2-2-----------------2-2-2-2-----------------|
|-0-0-0-0-----------------0-0-0-0-----------------|


  N.C.                                A5
                   |--3--|  |--3--|   |-3-|  |--3--|  |-3-|  |--3--|
  S S S S S S S S  E  E  E  E  E  E   E E E  E  E  E  E E E  E  E  E
|-----------------------------------|----------------------------------|
|-----------------------------------|----------------------------------|
|-----------------------------------|-------<5>-------------<5>--------|
|-9-9-9-9-9-9-9-9-10-10-10-12-12-12-|-------<5>---<5>-------<5>---<5>--|
|-----------------------------------|-0-0-0-----0-<5>-0-0-0-----0-<5>--|
|-9-9-9-9-9-9-9-9-10-10-10-12-12-12-|-2-2-2-----2-----2-2-2-----2------|
|-----------------------------------|-0-0-0-----0-----0-0-0-----0------|


  N.C.                                      A5
                                            |-3-|  |--3--|  |-3-|  |--3--|
  S S S S S S S S  S  S  S  S  S  S  S  S   E E E  E  E  E  E E E  E  E  E
|-----------------------------------------|---------------------------------|
|-----------------------------------------|---------------------------------|
|-----------------------------------------|-------<5>-------------<5>-------|
|-9-9-9-9-9-9-9-9-10-10-10-10s12-12-12-12-|-------<5>---<5>-------<5>---<5>-|
|-----------------------------------------|-0-0-0-----0-<5>-0-0-0-----0-<5>-|
|-9-9-9-9-9-9-9-9-10-10-10-10s12-12-12-12-|-2-2-2-----2-----2-2-2-----2-----|
|-----------------------------------------|-0-0-0-----0-----0-0-0-----0-----|


  N.C.                                      A5
                                                        >
  S S S S S S S S  S  S  S  S  S  S  S  S   W          +W
|-----------------------------------------|----------|--------*|
|-----------------------------------------|----------|--------*|
|-----------------------------------------|----------|--------*|
|-9-9-9-9-9-9-9-9-10-10-10-10s12-12-12-12-|----------|--------*|
|-----------------------------------------|-0--------|-(0)----*|
|-9-9-9-9-9-9-9-9-10-10-10-10s12-12-12-12-|-2--------|-(2)----*|
|-----------------------------------------|-0--------|-(0)----*|



Duration Legend
---------------
W - whole; H - half; Q - quarter; E - 8th; S - 16th; T - 32nd; X - 64th; a - acciaccatura
+ - note tied to previous; . - note dotted; .. - note double dotted
Uncapitalized letters represent notes that are staccato (1/2 duration)
Irregular groupings are notated above the duration line
Duration letters will always appear directly above the note/fret number it represents the
duration for.  Duration letters with no fret number below them represent rests.  Multi-
bar rests are notated in the form Wxn, where n is the number of bars to rest for.  Low
melody durations appear below the staff

Tablature Legend
----------------
 h   - hammer-on
 p   - pull-off
 b   - bend
 pb  - pre-bend
 r   - bend release (if no number after the r, then release immediately)
 /\  - slide into or out of (from/to "nowhere")
 s   - legato slide
 S   - shift slide
 - natural harmonic
[n]  - artificial harmonic
n(n) - tapped harmonic
 ~   - vibrato
 tr  - trill
 T   - tap
 TP  - trem. picking
 PM  - palm muting
\n/  - tremolo bar dip; n = amount to dip
 \n  - tremolo bar down
 n/  - tremolo bar up
/n\  - tremolo bar inverted dip
 =   - hold bend; also acts as connecting device for hammers/pulls
 <> - volume swell (louder/softer)
 x   - on rhythm slash represents muted slash
 o   - on rhythm slash represents single note slash

Misc Legend
-----------
 |  - bar
||  - double bar
||o - repeat start
o|| - repeat end
*|  - double bar (ending)
 :  - bar (freetime)
 $  - Segno
 &  - Coda
Tempo markers -  = BPM(8/16=s8/s16), where s8 = swing 8ths, s16 = swing 16ths
            
Tabs too difficult? Try these video lessons and learn fast.


comments powered by Disqus
↑ Back to top | Tablatures and chords are parodies/interpretations of the original songs. You may use it for private study, scholarship, research or language learning purposes only