>
 >
Winter 1

Winter 1 Guitar Tabs

Tori Amos - Winter 1 chords, tabs, tablatures, lyrics

Guitar lessons | Add/correct | Request | Top 50 tabs Artists:  A B C D E F G H I J K L M N O P Q R S T U V W X Y Z 0-9

Winter 1 Guitar Tabs – Tori Amos

CD, Sheet music, Poster

Do you like Winter 1? Share with your friends now
ChordsChords v2TabsTabs v2Ukulele
Tuning: Down 1/2 step Eb,Ab,Db,Gb,Bb,eb

Chords: If you choose to strum the verse part. Play chords with an
x in the middle by resting the finger that is playing the note on the
string above across the x string to deaden it.
E5:    022x00
Bm7:   x24232
C5:    x3x013
Asus4: x02230
Csus2: x3x033
Asus2: x02200
G:     320003
Em:    022000
C:     x32010
Am:    x02210
D:     xx0232
Cmaj7: x32000

Intro and Verse pattern:

 E5              Bm7              C5               Asus4               
|--------0---2---------------2---|3-------5-------|--------0-------|
|--------0-------3-------5-------|----------------|3---------------|
|------------------------2-------|----0-------0---|2-------4-------|
|--------2-----------4-----------|----------------|----2-------0h2-|
|----2-----------2---------------|3-------3-------|0---------------|
|0-------------------------------|----------------|----------------|
 1   -   2   -   3   -   4   -   |1   -   2   -   |1   -   2   -   |<-timing


 E5              Bm7              Csus2       Asus2               
|--------0---2---------------2---|3-----2-----0---|----------------|
|--------0-------3-------5-------|3-----------0---|--------0-------|
|------------------------2-------|----0-----------|----2-----------|
|--------2-----------4-----------|------------2---|------------0h2-|
|----2-----------2---------------|3-------3---0---|----------------|
|0-------------------------------|----------------|----------------|
 1   -   2   -   3   -   4   -   |1   -   2   -   |1   -   2   -   |

 E5              Bm7              C5               Asus4               
|--------0---2---------------2---|3-------5-------|--------0-------|
|--------0-------3-------5-------|----------------|3---------------|
|------------------------2-------|----0-------0---|2-------4-------|
|--------2-----------4-----------|----------------|----2-------0h2-|
|----2-----------2---------------|3-------3-------|0---------------|
|0-------------------------------|----------------|----------------|
 1   -   2   -   3   -   4   -   |1   -   2   -   |1   -   2   -   |

 E5              Bm7              Csus2       E5               
|--------0---2---------------2---|3-----2-----0---|
|--------0-------3-------5-------|3-----------0---|
|------------------------2-------|----0-----------|
|--------2-----------4-----------|----------------|
|----2-----------2---------------|3-------3-------|
|0-------------------------------|------------0---|
 1   -   2   -   3   -   4   -   |1   -   2   -   |

|--------------------------------|
|--------0-----------0-----------|
|----2-------2---2-------2-------|
|----------------------------0h2-|Omit hammer on when
|--------------------------------|leading into chorus
|--------------------------------|
 1   -   2   -   3   -   4   -   |

Verse:
E5        Bm7        C5     Asus4
 Snow can wait, I forgot my mittens
E5       Bm7          Csus2     Asus2
 Wipe my nose, get my new boots on
E5              Bm7                     C5       Asus4
 I get a little warm in my heart when I think of winter
E5      Bm7        Csus2    E5
 Put my hand in my father's glove

Chorus:
G                           Em   C
when you gonna make up your mind
G                          Em      C
When you gonna love you as much as I do
G                           Em
When you gonna make up your mind
    C                G         C
Cos things are gonna change so fast
              Em         C        Am
All the white horses are still in bed
                G               C
Tell you that I always want you near
                    Em D Cmaj7 D   E5
You say that things change      my dear





Comments


Popular Tori Amos tabs & chords
Big Wheel Chords
Gold Dust Chords
Purple People 1 Chords
Tombigbee Chords
1000 Oceans Ukulele
Jackies Stength Ukulele
Jamaica Inn Ukulele
Leather Ukulele
Precious Things Ukulele
Your Cloud Ukulele


Song lyrics



↑ Back to top | Tablatures and chords are parodies/interpretations of the original songs. You may use it for private study, scholarship, research or language learning purposes only
© 2014 AZChords.com Contact us | Privacy policy | DMCA | Add/correct tabs | Request tabs | Top 50 tabs