>
 >
Silent All These Years

Silent All These Years Guitar Tabs

Tori Amos - Silent All These Years chords, tabs, tablatures, lyrics

Guitar lessons | Add/correct | Request | Top 50 tabs Artists:  A B C D E F G H I J K L M N O P Q R S T U V W X Y Z 0-9

Silent All These Years Guitar Tabs – Tori Amos

CD, Sheet music, Poster

Do you like Silent All These Years? Share with your friends now
TabsTabs v2
------------------------------------------------------------------------------
------------------------------------------------------------------------------

Tuning: EADGBE

Intro:
e|---------------------------------------------------------------------------|
B|---------------------------------------------------------------------------|
G|-------------------------1-------------------------1-----------------------|
D|-2-1-2-3-2-1-2-3-2-1-2-3---2-1-2-3-2-1-2-3-2-1-2-3-------------------------|
A|---------------------------------------------------------------------------|
E|---------------------------------------------------------------------------|

Verse:
e|---------------------------------------------------------------------------|
B|-----0-------------0--------0-------0--------------------------------------|
G|---1---1---------1---1----1---1---1---1------------------------------------|
D|-2-------------1-----------------------------------------------------------|
A|------------------------4-------2------------------------------------------|
E|---------------------------------------------------------------------------|
   Excuse me but can I be you for a while
e|---------------------------------------------------------------------------|
B|-----0-------------0----------0-------0------------------------------------|
G|---1---1---------1---1------1---1---1---1----------------------------------|
D|-2-------------1-----------------------------------------------------------|
A|--------------------------4-------2----------------------------------------|
E|---------------------------------------------------------------------------|
   My dog won't bite if you sit real still I got the
e|---------------------------------------------------------------------------|
B|-----0-----------------0----------0-------------0--------------------------|
G|---1---1-------------1---1------1---1---------1---1------------------------|
D|-2-----------------1-------------------------------------------------------|
A|------------------------------4-------------2------------------------------|
E|---------------------------------------------------------------------------|
   anti-Christ in the kitchen   yellin' at me again
e|---------4---------4-------------------------------------------------------|
B|-------2-----2-------2-----------------------------------------------------|
G|-----2---------2-----------------------------------------------------------|
D|---2-------2-----2---------------------------------------------------------|
A|-0-------------------------------------------------------------------------|
E|---------------------------------------------------------------------------|
             Yeah, I can hear that

Chorus:

A                   B
Cause what if I'm a mermaid
         A
In these jeans of his
     B
With her name still on it
        A
Hey but I don't care
      B
Cause sometimes
       A
I said sometimes
       B
I hear my voice
              E D B
And it's been here

Silent All These...

Bridge:

easy Easy Easy
e|-----0-0------0-0-----0-0-----0-0------------------------------------------|
B|-----0-0------0-0-----0-0-----0-0------------------------------------------|
G|-----9-9------9-9-----9-9-----9-9------------------------------------------|
D|---9--------9-------9-------9----------------------------------------------|
A|-7--------6----------------------------------------------------------------|
E|------------------9-------7------------------------------------------------|
   Years go by Will I still be waiting For
e|-----0-0------0-0-----0-0-----0-0------------------------------------------|
B|-----0-0------0-0-----0-0-----0-0------------------------------------------|
G|-----9-9------9-9-----9-9-----9-9------------------------------------------|
D|---9--------9-------9-------9----------------------------------------------|
A|-7--------6----------------------------------------------------------------|
E|------------------9-------7------------------------------------------------|
   somebody else to under---stand
e|-----0-0------0-0-------0-0-----------0-0----------------------------------|
B|-----0-0------0-0-------0-0-----------0-0----------------------------------|
G|-----9-9------9-9-------9-9-----------9-9----------------------------------|
D|---9--------9---------9-------------9--------------------------------------|
A|-7--------6----------------------------------------------------------------|
E|--------------------9-------------7----------------------------------------|
   Years go by If I'm stripped of my beauty And the
e|-----0-0------0-0-----0-0-----0-0------------------------------------------|
B|-----0-0------0-0-----0-0-----0-0------------------------------------------|
G|-----9-9------9-9-----9-9-----9-9------------------------------------------|
D|---9--------9-------9-------9----------------------------------------------|
A|-7--------6----------------------------------------------------------------|
E|------------------9-------7------------------------------------------------|
   orange   clouds Raining in head
e|-----0-0------0-0-------0-0------0-0---------------------------------------|
B|-----0-0------0-0-------0-0------0-0---------------------------------------|
G|-----9-9------9-9-------9-9------9-9---------------------------------------|
D|---9--------9---------9--------9-------------------------------------------|
A|-7--------6----------------------------------------------------------------|
E|--------------------9--------7---------------------------------------------|
   Years go by Will I choke on my tears Till 
e|-----0-0------0-0-----0-0-----0-0------------------------------------------|
B|-----0-0------0-0-----0-0-----0-0------------------------------------------|
G|-----9-9------9-9-----9-9-----9-9------------------------------------------|
D|---9--------9-------9-------9----------------------------------------------|
A|-7--------6----------------------------------------------------------------|
E|------------------9-------7------------------------------------------------|
   finally  there is nothing left
e|-----0-0------0-0-----0-0-----0-0------------------------------------------|
B|-----0-0------0-0-----0-0-----0-0------------------------------------------|
G|-----9-9------9-9-----9-9-----9-9------------------------------------------|
D|---9--------9-------9-------9----------------------------------------------|
A|-7--------6----------------------------------------------------------------|
E|------------------9-------7------------------------------------------------|   
   One more casualty       You know we're too
e|-----0-0------0-0-----0-0-----0-0------------------------------------------|
B|-----0-0------0-0-----0-0-----0-0------------------------------------------|
G|-----9-9------9-9-----9-9-----9-9------------------------------------------|
D|---9--------9-------9-------9----------------------------------------------|
A|-7--------6----------------------------------------------------------------|
E|------------------9-------7------------------------------------------------|
   easy     easy    easy

Outro:

E       A
Silent  All These 
E       A                     D A Asus4 E
Silent, silent All These Years
===============================================================================





Comments


Popular Tori Amos tabs & chords
Bachelorette Chords
Happy Phantom Chords
Precious Things Chords
She's Your Cocaine Chords
Yes Anastasia Chords
Cooling Ukulele
Frog On My Toe Ukulele
I Cant See New York Ukulele
Marys Of The Sea Ukulele
Tombigbee Ukulele


Song lyrics



↑ Back to top | Tablatures and chords are parodies/interpretations of the original songs. You may use it for private study, scholarship, research or language learning purposes only
© 2014 AZChords.com Contact us | Privacy policy | DMCA | Add/correct tabs | Request tabs | Top 50 tabs