» » »

Tommy Reilly, Gimme A Call Chords (ver.1)

Artists:  A B C D E F G H I J K L M N O P Q R S T U V W X Y Z # 

Gimme A Call Chords (ver.1)

Tommy Reilly Tabs
 Rating:
4.5/5 (8 votes)
Gimme A Call lessons Tabs too difficult? Try these video lessons and learn fast
                This is just a sort of combination of other tabs i have found for it, and included 
though there seem to be about 5 different lyric'd versions of this song, but i've tried to 
them out as best i could!

that chap's got some songwriting skills
enjoy- Jack

Verse goes & Chorus (chorus strummed heavily)
   Dm     Am         C       F
---1-------0---------0-------1-|
---3-------1---------1-------1-|
---2-------2---------0-------2-|
-0-----0---2---------2---2-3-3-|
---------0-0---0-2-3-3--3----3-|
---------------------0-------1-|

pre-chorus

E|11111111-00000000-----------------------------------|
A|------------------00000000-------1111---------------|
D|---------------------------0000---------------------|
G|----------------------------------------------------|
B|----------------------------------------------------|
E|----------------------------------------------------|


LYRICS AND SONG ORDER


VERSE 1
------------------------
tonight i wander, carelessly
through the tunnels, of the abc

see i'm not lost, its just that
i need to be, clear of mind to dream

and a laser shoots another image through my eye
of a light square piercing jet black sky

and she floats down, all pretty and brown, and we share a drink tonight
and we share a pint tonight


PRE-CHORUS
------------------------

gimmie a call, you got a phone dont you
turn it on, cause i need to hear from you

dyou know why, cause i saw something today,that made it all come
it all came back to me

x2


CHORUS
----------------------
but you aint stoppin' me noooo, cause i've reached that point in my life
when no-ones stopping me tonight, cause i've reached that point in my life


VERSE2
----------------------
theres beats and theres pulses and theres rhythm and soul,
and i stand quite calmly, as i lose control

yeah she was here, now she aint no more
she loves this buried floor
she loves this buried floor....

PRE-CHORUS REPEAT
------------------------
CHORUS REPEAT
------------------------
PRE-CHORUS REPEAT
            
Submit corrections

comments powered by Disqus
↑ Back to top | Tommy Reilly Chords for Gimme A Call. Lyrics for acoustic guitar and electric guitar. Tablatures and chords are parodies/interpretations of the original songs. You may use it for private study, scholarship, research or language learning purposes only