» » »

Tommy Reilly, Gimme A Call Tabs (ver.1)

Artists:  A B C D E F G H I J K L M N O P Q R S T U V W X Y Z # 

Gimme A Call Tabs (ver.1)

Tommy Reilly Tabs
Rating:
0/5 (0 votes)
Gimme A Call lessons Tabs too difficult? Try these video lessons and learn fast
                Tommy Reilly – Gimme A Call

Okay this is definatley spot on, the formatting isn’t perfect but the tab is
definatley right, please comment, watch the videos on you tube of as that’s what
its specifically tabbed to, that’ll also give you the rhythm. Cheers. X


    Dm        Am      C         F
e ---1---------0-------0---------1-------|
b ---3---------1-------1---------1-------|
g ---2---2-----2-------0---------2---2---|
d –0---0---0---2-------2---2---3-3-3---3-|
a -----------0---0-2-3-3-3---3-----------|
e ---------------------------------------|


    Dm        F
|---1---------0------------------|
|---3---------1------------------|
|---2---2-----2------------------|
|–0---0---0---2---2--------------|
|-----------0---0---0-1--1--1--1-|
|--------------------------------|


    Dm        Am      C         F
|---1---------0-------0---------1-------| X3
|---3---------1-------1---------1-------|
|---2---2-----2-------0---------2---2---|
|–0---0---0---2-------2---2---3-3-3---3-|
|-----------0---0-2-3-3-3---3-----------|
|---------------------------------------|
Tonight I wander, carelessly
Through the tunnels of the ABC
See I’m not lost, I just need to be


     Dm        Am        Bb
|---1---------0---------1---------------|
|---3---------1---------3---------------|
|---2---2-----2---------3---------------|
|–0---0---0---2---2-----3---3-----------|
|-----------0---0---0-1---1---1-1-1-1-1-|
|---------------------------------------|
Clear of mind to dream


    Dm        Am      C         F
|---1---------0-------0---------1-------| X3
|---3---------1-------1---------1-------|
|---2---2-----2-------0---------2---2---|
|–0---0---0---2-------2---2---3-3-3---3-|
|-----------0---0-2-3-3-3---3-----------|
|---------------------------------------|
And the laser shoots another image through my eye
Of a white square piercing a jet black sky
And then she floats down, all pretty and white


    Dm        Am        Bb
|---1---------0---------1---------1-------|
|---3---------1---------3---------3-------|
|---2---2-----2---------3---------3-------|
|–0---0---0---2---2-----3---3-----3---3---|
|-----------0---0---0-1---1---1-1---1---1-|
|-----------------------------------------|
I we share a drink tonight


    Dm        Am
|---1---------0-------------------------------------------------------|
|---3---------1-------------------------------------------------------|
|---2---2-----2-------------------------------------------------------|
|–0---0---0---2---2---------------------------------------------------|
|-----------0---0---0-1--1--------------------------------------------|
|--------------------------s6-6-5-3-1-1-1-1-1-1-1111-0-0-0-0-0-0-0000-|
Yeah we share a drink tonight.              Gimme a call         You’ve gotta phone don't you


---------------------------------------------------------------------|
---------------------------------------------------------------------|
---------------------------------------------------------------------|
-----------------0-0-0000--------------------------------------------|
0-0-0-0-0-0-0000----------1-1-1111-----------------------------------|
-----------------------------------1-1-1-1-1-1-1111-0-0-0-0-0-0-0000-|
Turn it on cause   I need to hear from you   do you know why     cause I saw something today


----------------------------|
----------------------------|
----------------------------|
-----------------0----------|
0-0-0-0-0-0-0000----------1-|
----------------------------|
That made it all come, it all came back to me.


  F                E                A                Dm       Bb
|-1-1-1-1-1-1-1111-0-0-0-0-0-0-0000-0-0-0-0-0-0-0000-1-1-1111-1-1-1111-|
|-1-1-1-1-1-1-1111-0-0-0-0-0-0-0000-1-1-1-1-1-1-1111-3-3-3333-3-3-3333-|
|-2-2-2-2-2-2-2222-1-1-1-1-1-1-1111-2-2-2-2-2-2-2222-2-2-2222-3-3-3333-|
|-3-3-3-3-3-3-3333-2-2-2-2-2-2-2222-2-2-2-2-2-2-2222-0-0-0000-3-3-3333-|
|-3-3-3-3-3-3-3333-2-2-2-2-2-2-2222-0-0-0-0-0-0-0000-0-0-0000-1-1-1111-|
|-1-1-1-1-1-1-1111-0-0-0-0-0-0-0000---------------------------1-1-1111-|
But you aint stoppin' me now,                 cause i've reached that point in my life


  F                E                A                Dm       Bb
|-1-1-1-1-1-1-1111-0-0-0-0-0-0-0000-0-0-0-0-0-0-0000-1--------1-|
|-1-1-1-1-1-1-1111-0-0-0-0-0-0-0000-1-1-1-1-1-1-1111-3--------3-|
|-2-2-2-2-2-2-2222-1-1-1-1-1-1-1111-2-2-2-2-2-2-2222-2--------3-|
|-3-3-3-3-3-3-3333-2-2-2-2-2-2-2222-2-2-2-2-2-2-2222-0--------3-|
|-3-3-3-3-3-3-3333-2-2-2-2-2-2-2222-0-0-0-0-0-0-0000-0--------1-|
|-1-1-1-1-1-1-1111-0-0-0-0-0-0-0000---------------------------1-|
When no ones stopping me tonight,             cause i've reached that point in my life


    Dm        Am      C         F
|---1---------0-------0---------1-------|
|---3---------1-------1---------1-------|
|---2---2-----2-------0---------2---2---|
|–0---0---0---2-------2---2---3-3-3---3-|
|-----------0---0-2-3-3-3---3-----------|
|---------------------------------------|


    Dm        Am
|---1---------0------------------|
|---3---------1------------------|
|---2---2-----2------------------|
|–0---0---0---2---2--------------|
|-----------0---0---0-1--1--1--1-|
|--------------------------------|


    Dm        Am      C         F
|---1---------0-------0---------1-------| X3
|---3---------1-------1---------1-------|
|---2---2-----2-------0---------2---2---|
|–0---0---0---2-------2---2---3-3-3---3-|
|-----------0---0-2-3-3-3---3-----------|
|---------------------------------------|
There’s beats and there’s pulses and there’s rhythm and soul,
and I stand quite calmly, as I lose control
see she was here, now she aint no more


    Dm        Am        Bb
|---1---------0---------1---------1-------|
|---3---------1---------3---------3-------|
|---2---2-----2---------3---------3-------|
|–0---0---0---2---2-----3---3-----3---3---|
|-----------0---0---0-1---1---1-1---1---1-|
|-----------------------------------------|
she loves this buried floor


    Dm        Am
|---1---------0-------------------------------------------------------|
|---3---------1-------------------------------------------------------|
|---2---2-----2-------------------------------------------------------|
|–0---0---0---2---2---------------------------------------------------|
|-----------0---0---0-1--1--------------------------------------------|
|--------------------------s6-6-5-3-1-1-1-1-1-1-1111-0-0-0-0-0-0-0000-|
she loves this buried floor                      Gimme a call         You’ve gotta phone don't you


---------------------------------------------------------------------|
---------------------------------------------------------------------|
---------------------------------------------------------------------|
-----------------0-0-0000--------------------------------------------|
0-0-0-0-0-0-0000----------1-1-1111-----------------------------------|
-----------------------------------1-1-1-1-1-1-1111-0-0-0-0-0-0-0000-|
Turn it on cause   I need to hear from you   do you know why     cause I saw   something today


----------------------------|
----------------------------|
----------------------------|
-----------------0----------|
0-0-0-0-0-0-0000----------1-|
----------------------------|
That made it all come, it all came back to me.


  F                E                A                Dm       Bb
|-1-1-1-1-1-1-1111-0-0-0-0-0-0-0000-0-0-0-0-0-0-0000-1-1-1111-1-1-1111-|
|-1-1-1-1-1-1-1111-0-0-0-0-0-0-0000-1-1-1-1-1-1-1111-3-3-3333-3-3-3333-|
|-2-2-2-2-2-2-2222-1-1-1-1-1-1-1111-2-2-2-2-2-2-2222-2-2-2222-3-3-3333-|
|-3-3-3-3-3-3-3333-2-2-2-2-2-2-2222-2-2-2-2-2-2-2222-0-0-0000-3-3-3333-|
|-3-3-3-3-3-3-3333-2-2-2-2-2-2-2222-0-0-0-0-0-0-0000-0-0-0000-1-1-1111-|
|-1-1-1-1-1-1-1111-0-0-0-0-0-0-0000---------------------------1-1-1111-|
But you aint stoppin' me now,                 cause i've reached that point in my life


  F                E                A                Dm       Bb
|-1-1-1-1-1-1-1111-0-0-0-0-0-0-0000-0-0-0-0-0-0-0000-1--------1-|
|-1-1-1-1-1-1-1111-0-0-0-0-0-0-0000-1-1-1-1-1-1-1111-3--------3-|
|-2-2-2-2-2-2-2222-1-1-1-1-1-1-1111-2-2-2-2-2-2-2222-2--------3-|
|-3-3-3-3-3-3-3333-2-2-2-2-2-2-2222-2-2-2-2-2-2-2222-0--------3-|
|-3-3-3-3-3-3-3333-2-2-2-2-2-2-2222-0-0-0-0-0-0-0000-0--------1-|
|-1-1-1-1-1-1-1111-0-0-0-0-0-0-0000---------------------------1-|
When no ones stopping me tonight,             cause i've reached that point in my life


  F                E                Am               Dm       Bb   F
|-1----------------0----------------0----------------1--------1----1|
|-1----------------0----------------1----------------3--------3----1|
|-2----------------1----------------2----------------2--------3----2|
|-3----------------2----------------2----------------0--------3----3|
|-3----------------2----------------0----------------0--------1----3|
|-1----------------0------------------------------------------1----1|
Gimme a call, you’ve gotta phone don’t you, turn it on cause, I need to hear from you.
            
Submit corrections

comments powered by Disqus
↑ Back to top | Tommy Reilly Tabs for Gimme A Call. Lyrics for acoustic guitar and electric guitar. Tablatures and chords are parodies/interpretations of the original songs. You may use it for private study, scholarship, research or language learning purposes only