>
 >
Hunt

Hunt Guitar Tabs

Tommy Emmanuel - Hunt chords, tabs, tablatures, lyrics

Guitar lessons | Add/correct | Request | Top 50 tabs Artists:  A B C D E F G H I J K L M N O P Q R S T U V W X Y Z 0-9

Hunt Guitar Tabs – Tommy Emmanuel

CD, Sheet music, Poster

Do you like Hunt? Share with your friends now
TabsTabs v2
----------------------------------------------------------------------------
                                                           The Hunt-Tommy Emmanuel
----------------------------------------------------------------------------

Drop D tuning

An easy, laid back song.

Introduction

e|-0-0-0--0-0-0--0-0---0-0-0--0-0-0--0-0---|
B|-3-3-3--3-3-3--3-3---3-3-3--3-3-3--3-3---|
G|-0h2-2--0h2-2--0h2---0h2-2--0h2-2--0h2---|
D|-0-0-0--0-0-0--0-0---0-0-0--0-0-0--0-0---|
A|-0-0-0--0-0-0--0-0---0-0-0--0-0-0--0-0---|
D|-0-0-0--0-0-0--0-0---0-0-0--0-0-0--0-0---|

e|-0-0-0--0-0-0--0-0---0----0-0-0-0----|
B|-3-3-3--3-3-3--3-3---3----1-1-1-0----|
G|-0h2-2--0h2-2--0h2---2----0-0-0-0----|
D|-0-0-0--0-0-0--0-0---0----2-2-2-0----|
A|-0-0-0--0-0-0--0-0---0----------0----|
D|-0-0-0--0-0-0--0-0---0----------0----|


Next part or Part One

e|-2-2-----------------2-2------------------2-2-----------------2---0-0-0-0-|
B|-3-3--------------3--3-3---------------3--3-3--------------3--3---1-1-1-0-|
G|-2-2------0----------2-2------0-----------2-2------0----------2---0-0-0-0-|
D|-0-0--2h4---4p2p0----0-0--2h4----4p2p0----0-0--2h4---4p2p0----0---2-2-2-0-|
A|------------------------------------------------------------------------0-|
D|------------------------------------------------------------------------0-|

e|-2-2-----------------2-2------------------2-2-----------------2---0-0-0-0-|
B|-3-3--------------3--3-3---------------3--3-3--------------3--3---1-1-1-0-|
G|-2-2------0----------2-2------0-----------2-2------0----------2---0-0-0-0-|
D|-0-0--2h4---4p2p0----0-0--2h4----4p2p0----0-0--2h4---4p2p0----0---2-2-2-0-|
A|------------------------------------------------------------------------0-|
D|------------------------------------------------------------------------0-|

e|-2--0-2-3-5p3p2p0-----------------------0-----2-------|
B|-3----------------3p2p0-----------------0--2--3--2-2--|
G|-2----------------------2p0-------------0--2--2--2-2--|
D|-0--------------------------4p2p0-----0-0--2--0--2-2--|
A|----------------------------------2h4---0--0-----0-0--|
D|----------------------------------------5-------------|

e|-2--0-2-3-5p3p2p0-----------------------0--0--0--|
B|-3----------------3p2p0-----------------1--0--1--|
G|-2----------------------2p0-------------0--0--2--|
D|-0--------------------------4p2p0-----0-2--2--2--|
A|----------------------------------2h4---3--2--0--|
D|-------------------------------------------2-----|

e|-2--0-2-3-5p3p2p0-----------------------0-----2------|
B|-3----------------3p2p0-----------------0--2--3--2---|
G|-2----------------------2p0-------------0--2--2--2---|
D|-0--------------------------4p2p0-----0-0--2--0--2---|
A|----------------------------------2h4---0--0-----0---|
D|----------------------------------------5------------|

e|-1-----1---3--1---3-----5--3------|
B|-1--1--1---1--1---3--3--3--3--3h5-|
G|----3-------------5--5--------3---|
D|-3-----3----------5-----------5---|
A|-1-----1----------3---------------|
E|------------------3---------------|

e|-2-2-----------------2-2-----------------2-2-----------------<7>-|
B|-3-3--------------3--3-3---------------3-3-3--------------3--<7>-|
G|-2-2------0----------2-2------0----------2-2------0----------<7>-|
D|-0-0--2h4---4p2p0----0-0--2h4---4p2p0----0-0--2h4---4p2p0----<7>-|
A|-------------------------------------------------------------<7>-|
D|-------------------------------------------------------------<7>-|


Part Two

e|-------------0-3-----3--3-----3----3-1------------------0-3----3--3----3-|
B|-1-----1-1-3-------3--------3----3-----1------------1-3------3-------3---|
G|-0--0-----------------------------------2-----------0--------------------|
D|-2----------------------------------------------0h2----------------------|
A|-3-----3-------2-2------1-1--------1-0----0-2-3----------2-2------1-1----|
D|-------------------------------------------------------------------------|

e|----------------|
B|-/2-2-2-2--3--5-|
G|-/2-2-2-2--3--5-|
D|-/2-2-2-2--3--5-|
A|--0-0-0-0--0--0-|
D|----------------|

Part Three

e|-1-----1-----3-5-8---7-------6-----5--------/3-\1-0-1---|
B|-3-----3-----5-6-10--8-------8-----6--------/5-\3-2-3---|
G|--------------------------------------------------------|
D|---0---0---0---0---0---0---0---0---0---0---0---0---0----|
A|--------------------------------------------------------|
D|-0---0---0---0---0---0---0---0---0---0---0---0---0------|

e|-1-----1-----3-5-8---7-----6-6--5-4-5-5---5---5-----6-6-5-4-|
B|-3-----3-----5-6-10--8-----3-3------2-2---2---2-----3-3-----|
G|---------------------------3--------2---------------3-------|
D|---0---0---0---0---0---0---3--------2---------------3-------|
A|---------------------------0--------0---0---0---0---0-------|
D|-0---0---0---0---0---0--------------------------------------|

e|-----------------0--0--0---0--0--0--|
B|-/2-3-5--5-6-8---10-11-14--14-14-12-|
G|-/2-3-5--6-7-9---9--10-12--12-12-12-|
D|-/2-3-5--7-8-10--11-12-14--14-14-14-|
A|--0-0-0--0-0-0---0--0--0---0--0--0--|
D|------------------------------------|


Part Four

e|---1-1-x--0-0-x--1-1-x-0-0-----0--|
B|---3-3-x--1-1-x--3-3-x-1-1--3--1--|
G|---2-2-x--0-0-x--2-2-x-0-0--3--2--|    X3
D|---0-0-x--2-2-x--0-0-x-2-2--3--2--|
A|-------x--3-3-x------x-3-3--1--0--|
D|-0--------------------------------|

e|-----------------------------------------------------------0--0--0--0--0--|
B|---3-3-3----3-3-3--------3-3-3----3-3-3-----/2-3-5--5-6-8--10-11-14-14-14-|
G|-3-3-3-3--3-3-3-3--3---3-3-3-3--3-3-3-3--3--/2-3-5--6-7-9--9--10-12-12-12-|
D|-3-3-3-3--3-3-3-3--3---3-3-3-3--3-3-3-3--3--/2-3-5--7-8-10-11-12-14-14-14-|
A|---------------------------------------------0-0-0--0-0-0--0--0--0--0--0--|
D|-4h5------4h5------4h5-4h5------4h5------4h5------------------------------|


And then back to part one





Comments


Popular Tommy Emmanuel tabs & chords
Angelina Tabs
Angelina 2 Tabs
Back On The Terra Firma Tabs
Hearts Grow Fonder Tabs
Hunt 2 Tabs
I Still Cant Say Goodbye Tabs
Keep It Simple Tabs
Stay Close To Me Tabs
The Duke Tabs
The Journey Tabs


Song lyrics



↑ Back to top | Tablatures and chords are parodies/interpretations of the original songs. You may use it for private study, scholarship, research or language learning purposes only
© 2014 AZChords.com Contact us | Privacy policy | DMCA | Add/correct tabs | Request tabs | Top 50 tabs