» » »

Tommy Emmanuel, Stevies Blues Tabs (ver.1)

Artists:  A B C D E F G H I J K L M N O P Q R S T U V W X Y Z # 

Stevies Blues Tabs (ver.1)

Tommy Emmanuel Tabs
4/5 (4 votes)
Stevies Blues lessons Tabs too difficult? Try these video lessons and learn fast
                At last i will giv you some bits of this song. i dont know all of it yet.
but its an kool song so..

e -------5-3--------------------------------
b ----3-5-----------------------------------
g -2/4------4/2p0---------1-1---2-2---1-----     x2
d ---------------2~-------2-2---2-2---2-----
a ------------------------2-2---0-0---2-----
e ------------------------0-0-3-----3-0-----

on the second time around you change the kinda chordy part 2 this

E -----------------
B -----------------
G -2-2---2-2---2---
D -2-2---0-0---2---
A -0-0-3-----3-0---
E -----------------

then...         /strum this chord as many times as needed. up and down strokes.        /

                  paml mute-----------------

 ill post the rest wen i learn it
Submit corrections

comments powered by Disqus
↑ Back to top | Tommy Emmanuel Tabs for Stevies Blues. Lyrics for acoustic guitar and electric guitar. Tablatures and chords are parodies/interpretations of the original songs. You may use it for private study, scholarship, research or language learning purposes only